PrimaNota.ru - самый крупный в мире бесплатный архив песенных текстов, аккордов, табулатур и нот


Misc Unsigned Bands - Goffredo Mameli - Il Canto Degli Italiani - бас-таба

Регистрация Запомнить меня
Войти через:  Facebook Google Twitter Vk Yandex Mail.ru

Misc Unsigned Bands - Goffredo Mameli - Il Canto Degli Italiani - бас-таба

Печатать
Просмотров: 43
These are the Bass tabs for the Italian National Anthem "Il Canto degli Italiani", also 
as "Fratelli d'Italia" from Goffredo Mameli...Standard Tuning EADG...
I'm not very sure about some notes, but this sounds very close to the original anthem 
first part of it)...try and rate!
Tabbed by nosferatu88

G ------------------0-------------|
D -------2-2-3h2---2-2h2---0-2-0--|
A ------------------------------3-|
E 3-3-5h3-------------------------|

G --------------------|
D 2-2-----------------|
A ---2---3-5-3-2-0----|
E --------------------|

G --------------------|
D -----------2-3------|
A 2-2-3-5-0-----------|
E --------------------|

Mail me at julez_nosferatu@yahoo.com if I did something wrong...

Tabbed by nosferatu88
Добавлено: 21.12.2013
Другие материалы по этой песне:
  • Аккорды и текст

Страница создана 21.12.2013
http://primanota.ru/misc-unsigned-bands/goffredo-mameli-il-canto-degli-italiani-chords.htm
Привет, Гость.
Предлагаем пройти революционный курс по гитаре.
Подарок от PrimaNota.Ru, забирай!