PrimaNota.ru - самый крупный в мире бесплатный архив песенных текстов, аккордов, табулатур и нот


Misc Unsigned Bands - Go Go Gadget Happy Heart - Amy Can Flyy - бас-таба, видео

Регистрация Запомнить меня
Войти через:  Facebook Google Twitter Vk Yandex Mail.ru

Misc Unsigned Bands - Go Go Gadget Happy Heart - Amy Can Flyy - бас-таба, видео

Печатать
Просмотров: 41
-----------------------------------------------------------------------------
	          Go go gadget happy heart - Amy Can Flyy
-----------------------------------------------------------------------------

Tabbed By : VinzF
e-mail: jvn_famor_shino@yahoo.com

Tuning: Standard EADG

intro:

G|------------------------------|
D|------------------------------| 
A|---------3~--5~---------------|
E|---3~--0~---------------------|

verse:

G|----------------------------------------------|
D|----------------------------------------------|
A|--------------------23-3-3-33--5-5-5-55-------|
E|---3-3-3-33--0-0-0-0--------------------------|

chorus:

G|------------------------------|-------------------------------------------|
D|------------------------------|-------------------------------------------|
A|--------2~~--3~~--5~~---------|-------------------------------------------|
E|---3~~------------------------|----333--3x---------/5---------------------|


Heyy..sorry if there's any mistakes..
i just learn it by ear.. :)



Добавлено: 12.12.2013
Другие материалы по этой песне:
  • Аккорды и текст

Страница создана 12.12.2013
http://primanota.ru/misc-unsigned-bands/go-go-gadget-happy-heart-amy-can-flyy-chords.htm
Привет, Гость.
Предлагаем пройти революционный курс по гитаре.
Подарок от PrimaNota.Ru, забирай!