PrimaNota.ru - самый крупный в мире бесплатный архив песенных текстов, аккордов, табулатур и нот


Misc Unsigned Bands - Funtwo - Carol Rock Funtwo Is Comin To Town - таба

Регистрация Запомнить меня
Войти через:  Facebook Google Twitter Vk Yandex Mail.ru

Misc Unsigned Bands - Funtwo - Carol Rock Funtwo Is Comin To Town - таба

Печатать
Просмотров: 37
Funtwo - Carol Rock
by guitarMorgan

Legend:
/ - slide up(to the right)
\ - slide down(to the left)
B - full bend
b - half bend
r - release
p - pull off
h - hammer on
H - harmonics

Intro:

E|--------------------|
B|--------------------|
G|--------------------|
D|--------------------|
A|--------------------|
E|----------\---------|

E|------------------------|---------------------------|
B|------------------------|---------------------------|
G|------------------------|---------------------------|
D|-7---7-5---7-5----------|---------------------------|
A|-----------------7-5----|-3b----0-3b---0-------0----|
E|------------------------|----------------3b---------|

E|------------------------|---------------------------|
B|------------------------|---------------------------|

G|------------------------|---------------------------|
D|-7---7-5---7-5----------|---------------------------|
A|-----------------7-5----|-3b----0-3b---0-------0----|
E|------------------------|----------------3b---------|

E|------------------------|---------------------------|
B|------------------------|---------------------------|
G|------------------------|---------------------------|
D|-7---7-5---7-5----------|---------------------------|
A|-----------------7-5----|-3b----0-3b---0-------0----|
E|------------------------|----------------3b---------|

E|------------------------|---------------------------|
B|------------------------|----------------9-9-9-9----|
G|------------------------|----------------7-7-7-7----|
D|-7---7-5---7-5----------|----------------6-6-6-6----|
A|-----------------7-5----|-3b----0-3b---0-7-7-7-7----|
E|------------------------|---------------------------|
                                           |-3-|


Chorus 1:

E|-----------------------|------------------------|
B|-2---3-5----5----5-----|-7---9-10----10~~~~/----|
G|-----------------------|------------------------|
D|-----------------------|------------------------|
A|-----------------------|------------------------|
E|-----------------------|------------------------|

E|------------------------|--------------------------|
B|-2---3-5----5~~~~---p3--|-5Br---p3-h5----3~~~~/----|
G|------------------------|--------------------------|
D|------------------------|--------------------------|
A|------------------------|--------------------------|
E|------------------------|--------------------------|


E|---------------------|--------------------|
B|-2---5----------2----|------3~~~~---------|
G|---------2-----------|-4-------------1----|
D|---------------------|--------------------|
A|---------------------|--------------------|
E|---------------------|--------------------|
   |---3---|


E|-----------------------|-----------------|
B|-----------------------|---------12\5----|
G|-2--------14~~~~-------|-----------------|
D|-----------------------|-----------------|
A|-----------------------|-----------------|
E|-----------------------|-----------------|


Chorus 2:


E|---------------------------|-14---16-17----17B----(17)r----|
B|-14---15-17----17----17----|-------------------------------|
G|---------------------------|-------------------------------|
D|---------------------------|-------------------------------|
A|---------------------------|-------------------------------|
E|---------------------------|-------------------------------|


E|-----------------------------|---------------------------------|
B|-/14---15-17----17~~~~---p15-|-17Br---p15-h17----15----15\---/-|
G|-----------------------------|---------------------------------|
D|-----------------------------|---------------------------------|
A|-----------------------------|---------------------------------|
E|-----------------------------|---------------------------------|


E|-------------------------|-----------------------|
B|-14---17-----------14----|-------15~~~~----------|
G|-----------14------------|-16--------------13----|
D|-------------------------|-----------------------|
A|-------------------------|-----------------------|
E|-------------------------|-----------------------|
   |----3----|


E|-------------------|-------------------------------------|
B|-------------------|-------------------------------------|
G|-14~~~~~~~~~~~~----|----------------------------11-13-14-|
D|-------------------|-------------------11-12-14----------|
A|-------------------|----------11-12-14-------------------|
E|-------------------|-10-12-14----------------------------|
                       |--3--|  |--3--|  |--3--|  |--3--|


Refrain:


E|----------------------|-17B---17-14------14\---------|
B|----------------------|---------------17-------------|
G|-14B----(14)r----X----|---------------------------/--|
D|----------------------|------------------------------|
A|----------------------|------------------------------|
E|----------------------|------------------------------|


E|-------------------------|
B|-------------------------|
G|-15~~--14----13----14----|
D|-------------------------|
A|-------------------------|
E|-------------------------|


E|-17--14------------------------------------------|
B|---------17--14----------------------------------|
G|-----------------16--15--14----------------------|
D|-----------------------------16--14--14----14----|
A|-------------------------------------------------|
E|-------------------------------------------------|
   |---3---|   |---3---|   |---3---|

E|-------------------------|-----------------------------|
B|-------12----11----12----|-/13---(13)---13-------------|
G|-14----------11----13----|-/13----13----13----/13--14--|
D|-------------------------|-----------------------------|
A|-------------------------|-----------------------------|
E|-------------------------|-----------------------------|


E|-----------------------------|-9-----------------------|
B|-----------------------------|-------------------------|
G|-15--16--14--14--13----------|-------------------------|
D|-----------------------16----|-------------------------|
A|-----------------------------|-------------------------|
E|-----------------------------|-------------------------|


Chorus 3:


E|----------------------|-----------------------------|
B|-2---3-5----5----5----|-7---9-10----10B----(10)r----|
G|----------------------|-----------------------------|
D|----------------------|-----------------------------|
A|----------------------|-----------------------------|
E|----------------------|-----------------------------|


E|----------------------------|--------------------------------|
B|-14---15-17----17~~~~---p15-|-17Br---p15-h17----15~~--15\----|
G|----------------------------|--------------------------------|
D|----------------------------|--------------------------------|
A|----------------------------|--------------------------------|
E|----------------------------|--------------------------------|


E|---------------------------|-------------17----16Br----|
B|-/14---17-----------14-----|-------15------------------|
G|------------14----------/--|-16------------------------|
D|---------------------------|---------------------------|
A|---------------------------|---------------------------|
E|---------------------------|---------------------------|
    |----3----|


E|-17~~~~~~~~~~~~~~~~~~~~|~~~~~~~~~~~~~~~~~~~~~~--|
B|-----------------------|------------------------|
G|-----------------------|------------------------|
D|-----------------------|------------------------|
A|-----------------------|------------------------|
E|-----------------------|------------------------|

The next part is a lot harder...n comes soon =)
Добавлено: 21.10.2013
Другие материалы по этой песне:
  • Аккорды и текст

Страница создана 21.10.2013
http://primanota.ru/misc-unsigned-bands/funtwo-carol-rock-funtwo-is-comin-to-town-chords.htm
Привет, Гость.
Предлагаем пройти революционный курс по гитаре.
Подарок от PrimaNota.Ru, забирай!