PrimaNota.ru - самый крупный в мире бесплатный архив песенных текстов, аккордов, табулатур и нот


Misc Unsigned Bands - Gabriel Faure - Pavane - таба

Регистрация Запомнить меня
Войти через:  Facebook Google Twitter Vk Yandex Mail.ru

Misc Unsigned Bands - Gabriel Faure - Pavane - таба

Печатать
Просмотров: 50
-------------------------------------------------------------------------------
                             Pavane - Gabriel Faure
-------------------------------------------------------------------------------
Tabbed by: Tyler.
Email: t_y_l_e_r_guitar@hotmail.com

Tuning: Standard

e|--0---------2--3---------5---3--2--3--0--2-------3--2--0--2----0-----------|
B|-------0------------0------------------------3---------------3-------------|
G|-----0---0--------0---0------------2-------2---2----------0----------------|
D|--2------------3-------------0---------------------------------------------|
A|-----------------------------------------2----------3----------0-----------|
E|---------------------------------------------------------------------------|

e|------------------------------------------------0--------------------------|
B|---1---4--0-------------------0------1--3----------3---1---4---0---------3-|
G|-0---0----------4--------4----0------2--4----------4---2---3---0---5-------|
D|-------------4----4----4---4--2----------------------------2-----------3---|
A|----------2---------0-----------------------2------0---------------5-------|
E|------------------------------3--3------0----------------------------------|

e|------------------------------------------0--------2--3---------5----------|
B|--1--0---1-----0----------0------0-------------0-----------0---------------|
G|------------2----------3------2-----0--------0---0-------0----0------------|
D|--3-----------------2-----1------------4--2--------------------------------|
A|---------------3----------2---------------------------3--------------------|
E|--3-----------------2------------------------------------------------------|

e|--3--2--3--0--2--------3--2--0--2----0-------------------------------------|
B|-------------------3---------------3------1---4--0-------------------------|
G|--------2--------2---2----------0-------0---0---------4--------4-----------|
D|--0-------------------------------------------------4---4----4---4---------|
A|--------------2-----------3----------0-----------2---------0---------------|
E|---------------------------------------------------------------------------|

e|---------------------------------------------------------------------------|
B|-------------------1---0------0-----------0--------------------------------|
G|--0-----2---0----------0---2-----0---2-------0-----0-----------------------|
D|--2-----3---0---------------------------3-------4-----2---2---1------------|
A|------------------------------3------5-------3-----1------2---2------------|
E|--3---3-----1---1------0---------------------------------------------------|

e|----------------------------------------------0---2---0--3--2--------------|
B|-----------------------------2---4------2--4------0-------------4-----2----|
G|--------0-----------4-------------------4----------------2----------3------|
D|--2---2----4-2-0------4----4--------4-----------------------------2--------|
A|----2------------3--2----2-------0------0----------------------------------|
E|--0-----------------------------------------------3-------------2----------|

e|-----------------------------0--2--0--3--2---------------------------------|
B|--------------2--3------2--3----0-----------3------2--0-------0--2--3-----2|
G|--4---------------------2------------------------0----------3------------0-|
D|-----4-----4---------0----------------0--------2---------0-------------2---|
A|--2-----2-----------------------------------0-----------------------0------|
E|-----------------2------2-------3---------------------2-----2--------------|

e|---------------------2-------------0--2--0---------------------------------|
B|--0------0-2-3-----2------3-----------------4------------------------------|
G|-------3---------0------2---2---2--------------------2-4-------------------|
D|----0----------2-----0-------------------------4-5-2-----5~----------------|
A|-------------0----------------3----3--------2------------------------------|
E|--2----2-------------------------------------------------------------------|


| /  slide up
| \  slide down
| h  hammer-on
| p  pull-off
| ~  vibrato
| +  harmonic
| x  Mute note
===============================================================================
Добавлено: 05.08.2013
Другие материалы по этой песне:
  • Аккорды и текст

Страница создана 05.08.2013
http://primanota.ru/misc-unsigned-bands/gabriel-faure-pavane-chords.htm
Привет, Гость.
Предлагаем пройти революционный курс по гитаре.
Подарок от PrimaNota.Ru, забирай!