PrimaNota.ru - самый крупный в мире бесплатный архив песенных текстов, аккордов, табулатур и нот


Misc Unsigned Bands - Gang Bang Brothers - Fingerpicking Freedom - таба

Регистрация Запомнить меня
Войти через:  Facebook Google Twitter Vk Yandex Mail.ru

Misc Unsigned Bands - Gang Bang Brothers - Fingerpicking Freedom - таба

Печатать
Просмотров: 54
Tabbed by: timothy frasca
questions, comments, or advice?  Please e-mail me at tf577681@wcupa.edu



                          fingerpicking freedom
                          by gang bang brothers

Tuning: standard  EADGBe
Tempo: moderate


intro
e|-------------------------------------------------------------------------|
B|-5--------5-------5----------------------------------0----------0--------|
G|----6--------6-------6-----6--------6---------6----------1----------1----|
D|-------6-------6--------------7---------7--------7----------2---------2--|
A|-4--------4-------4--------------7---------7---------2----------2--------|
E|---------------------------5--------5---------5--------------------------|


e|-------2-------2--------2------|
B|-0--------0-------0--------0---|
G|----1-------1--------1---------|  X4
D|-------------------------------|
A|-2-----2-------2--------2------|
E|-------------------------------|

verse
e|-------------------------------------------------------------------------|
B|-5--------5-------5-------0----------0---------0-------0--------0--------|
G|----6--------6-------6--------6----------6---------6------2---------1----|
D|-------6-------6-----------------4----------4-----------------1---------2|
A|-4--------4-------4-------6----------6---------6-------2---------2-------|
E|-------------------------------------------------------------------------|


e|-------2----------2---------2--------------------------------------------|
B|-0---------0---------0----------0--------9-----------9----------9--------|
G|----1---------2---------2-------------------9-----------9----------9-----|
D|------------------------------------------------9-----------9------------|
A|-2-----2----------2---------2------------7-----------7----------7--------|
E|-------------------------------------------------------------------------|


e|-------------------------------------------------------------------------|
B|-7---------7----------7------5--------5----------5------7----------7-----|
G|----7----------7---------7-------5---------5--------5-------7---------7--|
D|-------7---------7-----------------5---------5-----------------7---------|
A|-5---------5----------5------3--------3----------3------5----------5-----|
E|-------------------------------------------------------------------------|


e|-------------------------------------------------------------------------|
B|---7------9---------9---------9--------7----------7------------7---------|
G|------7------9---------9----------9-------7-----------7-----------7------|
D|-7--------------9---------9-------------------7-----------7--------------|
A|---5------7---------7---------7--------5----------5------------5---------|
E|-------------------------------------------------------------------------|


e|------------------------------------------------------|
B|-5---------5---------5-------0--------0--------0------|
G|----5---------5---------5-------2--------2---------2--|
D|-------5---------5-----------------1--------1---------|
A|-3---------3---------3-------2--------2--------2------|
E|------------------------------------------------------|

Chorus
e|-0---------0---------0-------0----------0----------1--------0------------|
B|-2---------2---------2-------1----------1----------2--------1------------|
G|-2------2--2------2--2---2---2------2---2------2---2----2---0------0-----|
D|-----2---------2------------------2---------2-------------------2--------|
A|-0---------0---------0-------0----------0----------0--------3------------|
E|-------------------------------------------------------------------------|


e|-0---------0--------0---------0---------0--------|
B|-1---------1--------0---------0---------0--------|
G|-0-----0---0---0----2-----2---2-----2---2---2----|  X4 then finish chorus 
D|----2------------------1---------1---------------|  with...... 
A|-3---------3--------2---------2---------2--------|
E|-------------------------------------------------|


e|-0-----------------------------|
B|-0-------0--------0------------|
G|-2--2-------2------------------|
D|------1-------1----------------| slight pause, then....
A|-2-----------------------------|
E|-------------------------------|

verse II
e|-4-----------------------------------------------------------------------|
B|----5-----5-----------------5---------------------------0----------------|
G|-6----6------6-----6----------6-----6----------------------1-----1-------|
D|----------6----6------6-----7----7------6-----7---------2-----2-----2----|
A|-------------------4----4-----------7-----7------7---------------2-----2-|
E|---------------------------------------------5-----5---------------------|


e|-----------2--------2---------2--------|
B|--------------0---------0--------1-----|
G|-----------------1---------1-----------|  X3
D|-2-------------------------------------|
A|----2----------------------------------|
E|-0-----0---0--------0---------0--------|


e|-4----------------------------------------------------------------------7|
B|----5-----5-----------------5-------------------------7------------------|
G|-6----6------6-----6-----------6-----6-------------------8-----8---------|
D|----------6----6------6-----7----7------6----7--------9----9------9------|
A|-------------------4----4------------7----7-----7--------------9----9---9|
E|---------------------------------------------5-----5---------------------|

   ***slight pause***

e|----------------------------------------|
B|-5--------5--------7----------9---------|
G|----6--------6---------8---------9------|  X2 Play this part a little
D|------6--------7----------9---------9---|     faster    
A|-4--------7--------9----------7---------|
E|----------------------------------------|


e|-------------------------------------------------------------------------|
B|-5---------5---------7-------------9-----------9----------9--------7-----|
G|----6---------6----------8-------------9-----------9----------9----------|
D|-------6--------7-----------9-------------9-----------9------------------|
A|-4---------7---------9-------------7-----------7----------7--------5-----|
E|-------------------------------------------------------------------------|


e|-------------------------------------------------------------------------|
B|--------7----------7------5--------5----------5------7----------7--------|
G|-7----------7---------7-------5---------5--------5-------7---------7-----|
D|-----7---------7-----------------5---------5-----------------7---------7-|
A|--------5----------5------3--------3----------3------5----------5--------|
E|-------------------------------------------------------------------------|


e|-------------------------------------------------------------------------|
B|-7------9---------9---------9--------7----------7------------7-----------|
G|----7------9---------9----------9-------7-----------7-----------7--------|
D|--------------9---------9-------------------7-----------7----------------|
A|-5------7---------7---------7--------5----------5------------5-----------|
E|-------------------------------------------------------------------------|


e|------------------------------------------------------|
B|-5---------5---------5-------0--------0--------0------|
G|----5---------5---------5-------2--------2---------2--|
D|-------5---------5-----------------1--------1---------|
A|-3---------3---------3-------2--------2--------2------|
E|------------------------------------------------------|

Chorus
e|-0---------0---------0-------0----------0----------1--------0------------|
B|-2---------2---------2-------1----------1----------2--------1------------|
G|-2------2--2------2--2---2---2------2---2------2---2----2---0------0-----|
D|-----2---------2------------------2---------2-------------------2--------|
A|-0---------0---------0-------0----------0----------0--------3------------|
E|-------------------------------------------------------------------------|


e|-0---------0--------0---------0---------0--------|
B|-1---------1--------0---------0---------0--------|
G|-0-----0---0---0----2-----2---2-----2---2---2----|  X4 then finish song
D|----2------------------1---------1---------------| with...... 
A|-3---------3--------2---------2---------2--------|
E|-------------------------------------------------|


e|-0------------------------------|
B|-0-------0----------------------|
G|-2--2-------2------1------------|
D|------1-------1----2------------| 
A|-2-----------------2------------|
E|-------------------0------------|


Добавлено: 09.08.2013
Другие материалы по этой песне:
  • Аккорды и текст

Страница создана 09.08.2013
http://primanota.ru/misc-unsigned-bands/gang-bang-brothers-fingerpicking-freedom-chords.htm
Привет, Гость.
Предлагаем пройти революционный курс по гитаре.
Подарок от PrimaNota.Ru, забирай!