PrimaNota.ru - самый крупный в мире бесплатный архив песенных текстов, аккордов, табулатур и нот


Misc Unsigned Bands - From The Shallows - Entities Beheading - таба

Регистрация Запомнить меня
Войти через:  Facebook Google Twitter Vk Yandex Mail.ru

Misc Unsigned Bands - From The Shallows - Entities Beheading - таба

Печатать
Просмотров: 37
Entities Beheading
By: From the Shallows
Album: Beyond the Unknown

Drop A#

This is the rhythm guitar part and there is no guitar solo tab.

(0:00 - 0:15)
|----------------------------------------------------------------------------|
|----------------------------------------------------------------------------|
|----------------------------------------------------------------------------|
|3-----3-----2-----3--------5----2------8-------8-----9------8--10-8-7-------|
|5-----5-----4-----5--------3----4-----10------10-----7-----10--------10-8-7-|
|-0-000---0-0---0-0---0-000---0-0--0-0----0-000---0-0---0-0------------------|


(0:15 - 0:22)

|-----------------------------------

|------------------------------------|
|------------------------------------|
|------------------------------------|
|555-0-0-0-444-0-0-0-111-------------|
|----0-0-0-----0-0-0------3333322222-|


(0:29 - 0:35)
|-----------------------------------------------------|
|---h---p---------------------------------------------|
|21-22-21---------------------------------------------|
|---------19-20-17------------------------------------|
|-----------------17----------------------------------|
|--------------------19~----15--15-17-15-14-15-14-12~-|

(0:29 - 0:43)
|----------------------------------------------------------------------------|
|----------------------------------------------------------------------------|
|----------------------------------------------------------------------------|
|3------3----2-----3--------5----2------8-------8------9----8--10-8-7--------|
|5------5----4-----5--------3----4-----10------10------7----10-------10-8-7--|
|-0-000---0-0--0-0----0-000---0-0--0-0----0-000---0-0----0-0-----------------|


(0:44 - 0:57)
|------------------------------------|
|------------------------------------|
|------------------------------------|
|------------------------------------|
|888------555------444-----444-------|
|---0-0-0----0-0-0----0-0-0----0-0-0-|


(0:57 - 1:12)
|------------------------------------------------------|
|------------------------------------------------------|
|------------------------------------------------------|
|---8--7--5-------8---7--5------7--5--3------7--5--3---|
|555-55-55--55-555-55--55-55-333-33-33-33-333-33-33-33-|
|------------------------------------------------------|


(1:12 - 1:25)
|----------------------------------------------------------------|
|----------------------------------------------------------------|
|--------5----------------5------------9----------------9--------|
|----3--------3-------3------------7-------7-------7--------7----|
|111--11---11--11-111--11---11-555--55---55--55-555--55---55--55-|
|----------------------------------------------------------------|


(1:26 - 1:39)
|--------------------------------------------------------------------|
|--------------------------------------------------------------------|
|--------------------------------------------------------------------|
|--------------------------------------------------------------------|
|---13--12--10------13--12--10--------12--10--8-------12--10---8-----|
|888--88--88--88-888--88--88---88--777--77--77--77-777--77--77---77--|


(1:40 -
|----------------------------------------------------------------|
|----------------------------------------------------------------|     This Riff
|----------------------------------------------------------------|     continues
|0-------8-----------------------8------------------------8------|     underneath
|0-----3-8--00000--0000--0-2-3-0-8---00000--0000--0-2-3-0-8------|     this bar
|0-----3-8--00000--0000--0-2-3-0-8---00000--0000--0-2-3-0-8------|


 - 1:59)
|------------------------------------------------|
|p---i---c---k---s----l---i--d---e---------------|
|------------------------------------------------|
|---------------------8------------------------8-|
|00000--0000--0-2-3-0-8---00000--0000--0-2-3-0-8-|
|00000--0000--0-2-3-0-8---00000--0000--0-2-3-0-8-|


(2:00 - 2:10)     WE WONT TAKE THIS   BACK!
|------------------------------------------------|
|------------------------------------------------|
|------------------------------------------------|
|---------------------8------------------------8-|
|00000--0000--0-2-3-0-8---00000--0000--0-2-3-0-8-|
|00000--0000--0-2-3-0-8---00000--0000--0-2-3-0-8-|


(2:11 - 2:16)
|------------------------------------------------------------|
|------------------------------------------------------------|
|------------------------------------------------------------|
|------------------------------------------------------------|
|00000--0000--0-2-3-0--0-2-3-0-   OTHER GUITAR    BASS-------|      DRUMS
|00000--0000--0-2-3-0--0-2-3-0-      0-2-3        0-2-3------|   BOOM BOOM BOOM


(2:17 - 2:44) BRUTAL BREAKDOWN!
|------------------------|
|------------------------|
|------------------------|
|------------------------|
|00-00--00-00--00--00-00-|
|00-00--00-00--00--00-00-|


(2:45 - 2:58)
|------------------------------------|
|------------------------------------|
|------------------------------------|
|------------------------------------|
|555-0-0-0-444-0-0-0-111-------------|
|----0-0-0-----0-0-0------3333322222-|


(2:59 - 3:02)
|-------------------------------|
|-------------------------------|
|-------------------------------|
|-------------------------------|
|8--888--8--888--8--888--8--888-|
|8--888--8--888--8--888--8--888-|


(3:03 - 3:27)
|---------------------------------------------------------------|
|---------------------------------------------------------------|
|---------------------------------------------------------------|
|---------------------------------------------------------------|
|0--000--0--000-12-10-8-8-10-12--8--888--8--888--8--888--8--888-|
|0--000--0--000------------------8--888--8--888--8--888--8--888-|


SOLO! (without the solo, its actually the rhythm guitar part)
(3:28 - 4:41) play till fade out
|---------------------------------------------------------------|
|---------------------------------------------------------------|
|---------------------------------------------------------------|
|0-------0-------10-8-7-7-8-10--8-------------------------------|
|0--000--0--000-----------------8--888--8--888--12-10-8-8-10-12-|
|0--000--0--000-----------------8--888--8--888------------------|


http://profile.myspace.com/index.cfm?fuseaction=user.viewprofile&friendID=33355608
Добавлено: 13.01.2014
Другие материалы по этой песне:
  • Аккорды и текст

Страница создана 13.01.2014
http://primanota.ru/misc-unsigned-bands/from-the-shallows-entities-beheading-chords.htm
Привет, Гость.
Предлагаем пройти революционный курс по гитаре.
Подарок от PrimaNota.Ru, забирай!