PrimaNota.ru - самый крупный в мире бесплатный архив песенных текстов, аккордов, табулатур и нот


Misc Unsigned Bands - Funtwo - Carol Rock - таба

Регистрация Запомнить меня
Войти через:  Facebook Google Twitter Vk Yandex Mail.ru

Misc Unsigned Bands - Funtwo - Carol Rock - таба

Печатать
Просмотров: 54
             _         _              _  _   _           _      _
            |- |_| |\| | \/\/ ( ) -  |_ /-\ |R ( ) |_   |R ( ) |_ |<
                              Atleast I tried :P

Song       : Carol Rock
Artist     : Funtwo
Tabbed by  : Chris93Rock
Tuning     : Standard

You can see this song on http://www.youtube.com/watch?v=86LQCv3X_vo
Check out my youtube channel if you wanna see if Im worthy this song:P
www.youtube.com/chris93rock
I dont know if this is a another cover song by funtwo or anything,
if you have any idea please contact me.

I havent tabbed the whole song yet, just the part from 00:26 - 00:45
If I get the time I'l probably tab the rest of the song.
Please approove this song UG cause I think its about 80% right and theres
no other tab for it. And its about christmas:)

Heres what the symbols mean:
h = hammer on
* = pinch harmonic
T = tapped harmonic (located over note)
b = bend ( (= what note to bend to)
Here we go:

e|-------------------------------------------------------------|
B|---2h-3h-5-5~---5-7h-8h-10~------2h-3h-5-5~--0-7*-0h-5*--3*~-|
G|-------------------------------------------------------------|
D|-------------------------------------------------------------|
A|-------------------------------------------------------------|
E|-------------------------------------------------------------|
                       T
e|-------------------------------------------------------------|
B|--2h-5-------2*----------------------------------------------|
G|-------2-5-4-------------------------------------------------|
D|----------------0-2-(14)~------------------------------------|
A|-------------------------------------------------------------|
E|-------------------------------------------------------------|

e|---------------------------14-14h-15h-17-17b(18)= 17---------|
B|---14h-15h-17-17--15h-17-------------------------------------|
G|-------------------------------------------------------------|
D|-------------------------------------------------------------|
A|-------------------------------------------------------------|
E|-------------------------------------------------------------|

e|------------------------------------------------------------|
B|-14h-15h-17-17~--15h-17--18b(19)= 18--15h-17-16-------------|
G|------------------------------------------------------------|
D|------------------------------------------------------------|
A|------------------------------------------------------------|
E|------------------------------------------------------------|
e|------------------------------------------------------------|

e|------------------------------------------------------------|
B|--14-17-----------------------------------------------------|
G|---------14-18-16-19----------------------------------------|
D|-----------------------18-20~-------------------------------|
A|------------------------------------------------------------|
E|------------------------------------------------------------|

Thats all that I've tabbed yet. I only took one day doing this 
but Ive heard the song like a thousand times.
Im probably posting a cover with these tabs on youtube sometime soon,
I hope you have fun playing this song and also I hope there
will be a better & full version of this here on Ultimate-Guitar.
Corrections? Hate mail? You name it.
Send it all to: fauskanger_42@hotmail.com


Добавлено: 13.01.2014
Другие материалы по этой песне:
  • Аккорды и текст

Страница создана 13.01.2014
http://primanota.ru/misc-unsigned-bands/funtwo-carol-rock-chords.htm
Привет, Гость.
Предлагаем пройти революционный курс по гитаре.
Подарок от PrimaNota.Ru, забирай!