PrimaNota.ru - самый крупный в мире бесплатный архив песенных текстов, аккордов, табулатур и нот


Misc Unsigned Bands - Fallen Traitors - Behind Walls - таба, видео

Регистрация Запомнить меня
Войти через:  Facebook Google Twitter Vk Yandex Mail.ru

Misc Unsigned Bands - Fallen Traitors - Behind Walls - таба, видео

Печатать
Просмотров: 46
Уроки эстрадного вокала в Санкт-Петербурге
Artist: Fallen Traitors
Album: Empty
Song: Behind Walls
Year: 2012

Verse:

Guitar 1
---------------------------------------------- |
---------------------------------------------- |
---------------------------------------------- |
---------------------3------------5----------- |
---0--0--0--0--0--0--3--3-3-3-3---5--5-5-5-5-- |
---0--0--0--0--0--0--3--3-3-3-3---5--5-5-5-5-- |
   .  .  .  .  .  .     . . . .      . . . .   |
---------------------------------------------- |
---------------------------------------------- |
---------------------------------------------- |
---------------------3------------3----------- |
---0--0--0--0--0--0--3--3-3-3-3---3--3-3-3-3-- |
---0--0--0--0--0--0--3--3-3-3-3---2--2-2-2-2-- |X4
   .  .  .  .  .  .     . . . .      . . . .   
                                               
Guitar 2                                       
---------------------------------------------- |
---------------------------------------------- |
---------------------------------------------- |
---------------------------------3h7p3p0h3p0-- |
---0--0--0--0--0--0--3h7p3p0h3p0-------------- |
---0--0--0--0--0--0--------------------------- |
   .  .  .  .  .  .                            |
---------------------------------------------- |
---------------------------------------------- |
---------------------------------------------- |
---------------------3------------3----------- |
---0--0--0--0--0--0--3--3-3-3-3---3--3-3-3-3-- |
---0--0--0--0--0--0--3--3-3-3-3---2--2-2-2-2-- |
   .  .  .  .  .  .     . . . .      . . . .   |
---------------------------------------------- |
---------------------------------------------- |
---------------------------------------------- |
---------------------------------3h7p3p0h3p0-- |
---0--0--0--0--0--0--3h7p3p0h3p0-------------- |
---0--0--0--0--0--0--------------------------- |
   .  .  .  .  .  .                            |
---------------------------------------------- |
---------------------------------------------- |
---------------------10-10101010--9--9-9-9-9-- |
---------------------------------------------- |
---0--0--0--0--0--0--8--8-8-8-8---7--7-7-7-7-- |
---0--0--0--0--0--0--------------------------- |X2
   .  .  .  .  .  .

Chorus:
---------------------------------------------------|
---------------------------------------------------|
---------------------------------------------------|
---0-0-0-0-0-0-0-0-0-0-0-0-5-5-5-5-5-5-5-5-5-5-5-5-|
---0-0-0-0-0-0-0-0-0-0-0-0-3-3-3-3-3-3-3-3-3-3-3-3-|
---0-0-0-0-0-0-0-0-0-0-0-0-3-3-3-3-3-3-3-3-3-3-3-3-|

---------------------------------------------------|
---------------------------------------------------|
---------------------------------------------------|
---7-7-7-7-7-7-7-7-7-7-7-7-5-5-5-5-5-5-3-3-3-3-3-3-|
---5-5-5-5-5-5-5-5-5-5-5-5-3-3-3-3-3-3-3-3-3-3-3-3-|
---5-5-5-5-5-5-5-5-5-5-5-5-3-3-3-3-3-3-2-2-2-2-2-2-|

---------------------------------------------------|
---------------------------------------------------|
---------------------------------------------------|
---0-0-0-0-0-0-0-0-0-0-0-0-5-5-5-5-5-5-5-5-5-5-5-5-|
---0-0-0-0-0-0-0-0-0-0-0-0-3-3-3-3-3-3-3-3-3-3-3-3-|
---0-0-0-0-0-0-0-0-0-0-0-0-3-3-3-3-3-3-3-3-3-3-3-3-|

---------------------------------------------------|
---------------------------------------------------|
---------------------------------------------------|
---7-7-7-7-7-7-7-7-7-7-7-7-5-5-5-5-5-5-3-3-3-3-3-3-|
---5-5-5-5-5-5-5-5-5-5-5-5-3-3-3-3-3-3-3-3-3-3-3-3-|
---5-5-5-5-5-5-5-5-5-5-5-5-3-3-3-3-3-3-2-2-2-2-2-2-|

---------------------------------------------------|
---------------------------------------------------|
---------------------------------------------------|
---0-0-0-0-0-0-0-0-0-0-0-0-5-5-5-5-5-5-5-5-5-5-5-5-|
---0-0-0-0-0-0-0-0-0-0-0-0-3-3-3-3-3-3-3-3-3-3-3-3-|
---0-0-0-0-0-0-0-0-0-0-0-0-3-3-3-3-3-3-3-3-3-3-3-3-|

---------------------------------------------------|
---------------------------------------------------|
---------------------------------------------------|
---7-7-7-7-7-7-7-7-7-7-7-7---------5---------------|
---5-5-5-5-5-5-5-5-5-5-5-5---------3------3--3--3--|
---5-5-5-5-5-5-5-5-5-5-5-5-3-3-3-3-3------2--2--2--|
                           . . . .        .  .  .

Bridge:
---------------------------------------------------- |
-----------10p9--10p9------------999777555999777555- |
---------------10----10----------------------------- |
---0--0--0--------------0--0--0--------------------- |
---0--0--0--------------0--0--0--------------------- |
---0--0--0--------------0--0--0--------------------- |
   .  .  .              .  .  .  ..................  |
                                                     |
-------------------------------------------------    |
-----------777555333777555333---------3p2--3p2---    |
-----------------------------------------3----3--    |
---0-----0--------------------0--0--0------------    |
---0-----0--------------------0--0--0------------    |
---0-----0--------------------0--0--0------------    |X2
   .     . .................. .  .  .  

--------------------------------------------   |
------------1010-10-10----------9-9--9--9---   |
------------1212-12-12----------1010-10-10--   |
---0--0--0-------------0--0--0--------------   |
---0--0--0-------------0--0--0--------------   |
---0--0--0-------------0--0--0--------------   |
   .  .  .             .  .  .                 |
                                               |
---------------------------------------------- |
------------7-7--7--7---------------11----11-- |
------------8-8--8--8-------------14----14---- |
---0--0--0-------------0--0--0--15----15------ |
---0--0--0-------------0--0--0---------------- |
---0--0--0-------------0--0--0---------------- |X2
   .  .  .             .  .  .

-------------------|
---10--------------|
---14--------------|
---0---------------|
---0---------------|
---0---------------|

Outro:

Guitar 1
--------------------------- |   |
--------------------------- |   |
--------------------------- |   |
---3-2---3-2---3-2---3-2--- |   |
-------3-----3-----3-----3- |   |
--------------------------- |X3 |
   . .   . .   . .   . .        |
----------------------------    |
----------------------------    |
----------------------------    |
---3-3-3-3-3-3-3-3-3-3-3-3--    |
---5-5-5-5-5-5-5-5-5-5-5-5--    |
----------------------------    | X4

--------:
--------:
--------:
--------:
---3/5--:
--------:

Guitar 2
-----------------------------------------------------  |
-----------------------------------------------------  |
---7-7-7-7-7-7-7-7-7-7-7-7-101010101010101010101010--  |
-----------------------------------------------------  |
---5-5-5-5-5-5-5-5-5-5-5-5-8-8-8-8-8-8-8-8-8-8-8-8---  |
-----------------------------------------------------  |
                                                       |
-----------------------------------------------------  |
-----------------------------------------------------  |
---9-9-9-9-9-9-9-9-9-9-9-9-14-----------14-----------  |
-----------------------------------------------------  |
---7-7-7-7-7-7-7-7-7-7-7-7-12-----------12-----------  |
--------------------------------000-000----000-000---  |X4
                                ... ...    ... ...
--------:
--------:
--------:
--------:
---5/8--:
--------:
Добавлено: 26.08.2013
Другие материалы по этой песне:
  • Аккорды и текст

Страница создана 26.08.2013
http://primanota.ru/misc-unsigned-bands/fallen-traitors-behind-walls-chords.htm
Привет, Гость.
Предлагаем пройти революционный курс по гитаре.
Подарок от PrimaNota.Ru, забирай!