PrimaNota.ru - самый крупный в мире бесплатный архив песенных текстов, аккордов, табулатур и нот


Misc Unsigned Bands - Fallen Traitors - Life - таба, видео

Регистрация Запомнить меня
Войти через:  Facebook Google Twitter Vk Yandex Mail.ru

Misc Unsigned Bands - Fallen Traitors - Life - таба, видео

Печатать
Просмотров: 59
Artist: Fallen Traitors
Album: Empty
Song: Life
Year: 2012

Intro:
Guitar 1
---0-------------|
---0-------------|
---4-------------|
---6-------------|
---6-------------|
-----------------|

Guitar 2
----------------------------------- |
---0---0-0-0---0-0-X-0-0-0-0---0-0- |
---4---4-4-4---4-4-X-6-6-6-6---6-6- |
---6---6-6-6---6-6-X-5-5-5-5---5-5- |
---6---6-6-6---6-6-X-6-6-6-6---6-6- |
----------------------------------- |
                                    |
----------------------------------- |
---4---4-4-4---4-4-X-2-2-2-2---2-2- |
---4---4-4-4---4-4-X-0-0-0-0---0-0- |
---4---4-4-4---4-4-X-1-1-1-1---1-1- |
---7---7-7-7---7-7-X-2-2-2-2---2-2- |
----------------------------------- |X4

Pre-Verse:
---0--(there's---------------------------|
---0-----------a-------------------------|
---4-------------nice--------------------|
---6------------------little-------------|
---6-------------------------drum--------|
----------------------------------fill)--|

Verse:
----------------------------------- |
-----------0---------------0------- |
-------4-----4---4-----6-----6---6- |
-----6---------------5------------- |
---6-----6-----6---6-----6-----6--- |
----------------------------------- |
                                    |
----------------------------------- |
-----------4---------------2------- |
-------4-----4---4-----0-----0---0- |
-----4---------------1------------- |
---7-----7-----7---2-----2-----2--- |
---0------------------------------- |X4

Guitar 1
----------------------------------- |
-----------0---------------0------- |
-------4-----4---4-----6-----6---6- |
-----6---------------5------------- |
---6-----6-----6---6-----6-----6--- |
----------------------------------- |
                                    |
----------------------------------- |
-----------4---------------2------- |
-------4-----4---4-----0-----0---0- |
-----4---------------1------------- |
---7-----7-----7---2-----2-----2--- |
---0------------------------------- |X4

Guitar 2
----------------------------------- |
---0---0-0-0---0-0-X-0-0-0-0---0-0- |
---4---4-4-4---4-4-X-6-6-6-6---6-6- |
---6---6-6-6---6-6-X-5-5-5-5---5-5- |
---6---6-6-6---6-6-X-6-6-6-6---6-6- |
----------------------------------- |
                                    |
----------------------------------- |
---4---4-4-4---4-4-X-2-2-2-2---2-2- |
---4---4-4-4---4-4-X-0-0-0-0---0-0- |
---4---4-4-4---4-4-X-1-1-1-1---1-1- |
---7---7-7-7---7-7-X-2-2-2-2---2-2- |
----------------------------------- |X4

Chorus:
Guitar 1
----------------------------------- |
---0---0-0-0---0-0-X-0-0-0-0---0-0- |
---4---4-4-4---4-4-X-6-6-6-6---6-6- |
---6---6-6-6---6-6-X-5-5-5-5---5-5- |
---6---6-6-6---6-6-X-6-6-6-6---6-6- |
----------------------------------- |
                                    |
----------------------------------- |
---4---4-4-4---4-4-X-2-2-2-2---2-2- |
---4---4-4-4---4-4-X-0-0-0-0---0-0- |
---4---4-4-4---4-4-X-1-1-1-1---1-1- |
---7---7-7-7---7-7-X-2-2-2-2---2-2- |
----------------------------------- |X4
Guitar 2
----------------------------------- |
----------------------------------- |
---6--/8---8---8/11-11--11-9--8-9-- |
----------------------------------- |
---4--/6---6---6/9--9---9--7--6-7-- |
----------------------------------- |
                                    |
-------------------                 |
-------------------                 |
-------------------                 |
-------------------                 |
---6---^7^6\4--\2--                 |
-------------------                 |X4

Solo 1 & 2 (Rhythm):
----------------------------------- |
----------------------------------- |
----------------------------------- |
----------------------------------- |
------4h6-4h6----4h6-4h6-----4h6--- |
---4-4--------4-4---------4-4------ |
   . .        . .         . .       |
----------------------------------- |
----------------------------------- |
----------------------------------- |
----------------------------------- |
------4h6-4h6----4h6-4h6-----4h6--- |
---4-4--------4-4---------4-4------ |
   . .        . .         . .       |
----------------------------------- |
----------------------------------- |
----------------------------------- |
----------------------------------- |
------2h4-2h4----2h4-2h4-----2h4--- |
---2-2--------2-2---------2-2------ |
   . .        . .         . .       |
----------------------------------- |
----------------------------------- |
----------------------------------- |
---------------------8-------4h6--- |
------8h9-8h9----8h9---9-8h9------- |
---0-0--------0-0------------------ |X2
   . .        . .

Solo 3 & 4 (Rhythm):
----------------------------------|
----------------------------------|
----------------------------------|
---6---6-6-6-6-6-6-6---6-6-6---8--|
---6---6-6-6-6-6-6-6---6-6-6---8--|
---4---4-4-4-4-4-4-4---4-4-4---6--|

----------------------------------|
----------------------------------|
----------------------------------|
---9-------4----------------------|
---9-------4----------------------|
---7-------2----------------------|

----------------------------------|
----------------------------------|
----------------------------------|
-----------2---------------2------|
---2-2-2-2-2-------2-2-2-2-2------|
---0-0-0-0-0-------0-0-0-0-0------|
   . . . .         . . . .
---------------------------------------|
---------------------------------------|
---------------------------------------|
-----------2-------2-----2-----2---2---|
---2-2-2-2-2---2-2-2-2-2-2-2-2-2-2-2---|
---0-0-0-0-0---0-0-0-0-0-0-0-0-0-0-0---|
   . . . .     . .   . .   . .   .

Outro:
Guitar 2
------------------------------------|
------------------------------------|
---4-4-4-4-4-4-4-4-6-6-6-6-6-6-6-6--|
------------------------------------|
---2-2-2-2-2-2-2-2-4-4-4-4-4-4-4-4--|
------------------------------------|

------------------------------------|
------------------------------------|
---11111111111111111111111111111111-|
------------------------------------|
---9-9-9-9-9-9-9-9-9-9-9-9-9-9-9-9--|
------------------------------------|

------------------------------------|
------------------------------------|
---4-4-4-4-4-4-4-4-6-6-6-6-6-6-6-6--|
------------------------------------|
---2-2-2-2-2-2-2-2-4-4-4-4-4-4-4-4--|
------------------------------------|

------------------------------------|
------------------------------------|
---13131313131313131616161615151515-|
------------------------------------|
---11111111111111111414141413131313-|
------------------------------------|
Добавлено: 01.11.2013
Другие материалы по этой песне:
  • Аккорды и текст

Страница создана 01.11.2013
http://primanota.ru/misc-unsigned-bands/fallen-traitors-life-chords.htm
Привет, Гость.
Предлагаем пройти революционный курс по гитаре.
Подарок от PrimaNota.Ru, забирай!