PrimaNota.ru - самый крупный в мире бесплатный архив песенных текстов, аккордов, табулатур и нот


Misc Unsigned Bands - Fame Over Infamy - Dear Agony - таба

Регистрация Запомнить меня
Войти через:  Facebook Google Twitter Vk Yandex Mail.ru

Misc Unsigned Bands - Fame Over Infamy - Dear Agony - таба

Печатать
Просмотров: 59
'FAME OVER INFAMY' - "DEAR AGONY" GUITAR TABS

So the first time I uploaded these they were really bad to be honest.
But I finished them, here they are. about 99% sure they're correct.
Enjoy~

Chords Used:
   G   Gsus2  Em/D
|--3--|--3--|--3--|
|--3--|--3--|--3--|
|--0--|--2--|--0--|
|--0--|--0--|--2--|
|--2--|--0--|--2--|
|--3--|--2--|--0--|

INTRO:
  ________________________________________________________________ 
e|--------7---------------7---------------5---------------5-------|
B|----5-5----5--------5-5----5--------5-5----5--------5-5----5----|
G|-5---5-5------5--5---5-5------5--7---7-7------7--7---7-7------7-|
D|----------------------------------------------------------------|
A|----------------------------------------------------------------|
E|----------------------------------------------------------------|
 |________________________________________________________________|

  ________________________________________________________
e|--------7---------------7---------------5-------7~----5~|
B|----5-5----5--------5-5----5--------5-5----5------------|
G|-5---5-5------5--5---5-5------5--7---7-7----------------|
D|--------------------------------------------------------|
A|--------------------------------------------------------|
E|--------------------------------------------------------|
 |________________________________________________________|

-----------------------
CHORUS:
-----------------------

Em/D                                          Gsus2                
  I'll paint the picture and you'll grasp the concept, I'm leaving;

G                            Gsus2               Em/D
   So take all you have from me, destroy our family.

-----------------------
VERSE 1:
-----------------------

Em/D
  Pull yourself together;

Gsus2                                   G
   I'll be patient, but things must change.


Don't be what I remember;

Gsus2
 Or I won't, yeah, I won't stay.

 ______________________________________________________________________________
|For this part, strum the first 2 chords (Em/D & Gsus2) four times down loudly.|
|______________________________________________________________________________|

-----------------------
BRIDGE 1:
-----------------------

Em/D(x4)
    This is what she'd want,

Gsus2(x4)
    This is what she'd want,

G                      Gsus2
    This is what she'd want.

-----------------------
CHORUS:
-----------------------

Em/D                                          Gsus2
  I'll paint the picture and you'll grasp the concept, I'm leaving.

G                            Gsus2
   So take all you have from me, destroy our family!

-----------------------
VERSE 2:
-----------------------

    Em/D
You want what you can't get and I will not have it.

   Gsus2
So sick of putting up with it and all these bad habits.

G
This is what she'd want.

     Gsus2
Yeah this is what she'd want.

-----------------------
BRIDGE:
-----------------------

  ___________________________________________________
e|---------------------------------------------------|
B|---------------------------------------------------|
G|---------------------------------------------------|
D|---------------------------------------------------|
A|---------------------------------------------------|
E|-0-00003-2-3-5-55553-3333/7-77777-8-7-5-55555-7-5--|
 |___________________________________________________|

  ___________________________________________________
e|---------------------------------------------------|
B|---------------------------------------------------|
G|---------------------------------------------------|
D|---------------------------------------------------|
A|---------------------------------------------------|
E|-0-00003-2-3-5-55553-3333/7-77777-8-7-5~----5-7-5--|
 |___________________________________________________|

-----------------------
CHORUS:
-----------------------

Em/D                                          Gsus2                
  I'll paint the picture and you'll grasp the concept, I'm leaving;

G                            Gsus2               Em/D
   So take all you have from me, destroy our family.

-----------------------
OUTRO:
-----------------------

Em/D                                          Gsus2
.........(this part is a break in vocals)..........................

G                    Gsus2/ G \ Gsus2 \ Em/D
    Destroy our family.


I'll paint the picture and you'll grasp the concept, I'm leaving.
So take all you have from me, destroy our family.
  _________________________________________________________
e|---3--2--3-----3--2--5-----3--2--5---------------------3~|
B|-------------------------------------------------------3~|
G|-0~---------2~----------0~----------2~--------2~-------0~|
D|-2~---------0~----------0~----------0~--------0~-------2~|
A|-2~---------0~----------2~----------0~--------0~-------2~|
E|-0~---------2~----------3~----------2~--------2--3-2-0-0~|
|__________________________________________________________|
Добавлено: 06.09.2013
Другие материалы по этой песне:
  • Аккорды и текст

Страница создана 06.09.2013
http://primanota.ru/misc-unsigned-bands/fame-over-infamy-dear-agony-chords.htm
Привет, Гость.
Предлагаем пройти революционный курс по гитаре.
Подарок от PrimaNota.Ru, забирай!