PrimaNota.ru - самый крупный в мире бесплатный архив песенных текстов, аккордов, табулатур и нот


Misc Unsigned Bands - Fingersmoran - Taco Tuesday - бас-таба

Регистрация Запомнить меня
Войти через:  Facebook Google Twitter Vk Yandex Mail.ru

Misc Unsigned Bands - Fingersmoran - Taco Tuesday - бас-таба

Печатать
Просмотров: 44
Intro
G|-2-4-5--2457975-242----2-4-5--2-4-5-7-5-4----2-4-5--2-4-2--|
D|-0-2-3--0235753-320----0-2-3--0-2-3-5-3-2----0-2-3--0-2-0--|
A|-----------------------------------------------------------|
D|-----------------------------------------------------------|

Verse
G|-22-4-4444444-55-7-7777777-|
D|-00-2-2222222-33-5-5555555-|
A|---------------------------|
D|---------------------------|

Variation #1
G|-5h777-5h77787-|
D|-0--00-0--0000-|
A|---------------|
D|---------------|

Variation #2
G|-17h191919-17h1919192019-|
D|--0----0-0--0----0-0-0-0-|
A|-------------------------|
D|-------------------------|

Variation #3
G|-------77----77----|
D|-------------------|
A|-0-3\5---3\5---5/3-|
D|-------------------|
   S S   PPS   PPS

Bridge
G|-777-7-7777-7-88885555-777-7-7777-7-101010109999-|
D|-777-7-7777-7-88885555-777-7-7777-7-101010109999-|
A|-555-5-5555-5-66663333-555-5-5555-5--8-8-8-87777-|
D|------0---------------------0--------------------|
        S                     S

Outro
G|-2-4-5--2457975-2-4-2-|
D|-0-2-3--0235753-0-2-0-|
A|----------------------|
D|----------------------|


Intro
Variation #1 x4
Verse
Variation #1 x2
Verse
Variation #2 x2
Verse
Variation #3 x2
Verse
Bridge x2
Bridge (Add mutes where aplicable) x2
Outro
Improve


Add fills after some of the variations.

Please Rate.

Добавлено: 29.11.2013
Другие материалы по этой песне:
  • Аккорды и текст

Страница создана 29.11.2013
http://primanota.ru/misc-unsigned-bands/fingersmoran-taco-tuesday-chords.htm
Привет, Гость.
Предлагаем пройти революционный курс по гитаре.
Подарок от PrimaNota.Ru, забирай!