PrimaNota.ru - самый крупный в мире бесплатный архив песенных текстов, аккордов, табулатур и нот


Misc Unsigned Bands - Entities - Revival - таба

Регистрация Запомнить меня
Войти через:  Facebook Google Twitter Vk Yandex Mail.ru

Misc Unsigned Bands - Entities - Revival - таба

Печатать
Просмотров: 101
This will be updated!!



|--7-----7------7---------7--7--------7-----7---------------------|
|--8-----8--------8-------8--8--------8-------8-------------------|
|--9-----9----------9-----9--9--------9---------9------12/9-------|
|--10----10-----------10--10-10-------10----------10---x--x---7---|
|--7--7--7--7777----------7--7--7777777--7-7-----------10/7-0-7---|
|--7--7--7--7777----------7--7--7777777--7-7----------------0-7---|


|--3--------3-------3--3--------3---------3----3--------3--3--------3--------|
|--4--------4-------4--4--------4---------4------4------4--4--------4--------|
|--5--------5-------5--5--------5---------5--------5----5--5--------5--------|
|--6--------6-------6--6--------6---------6----------6--6--6--------6--------|
|--3--3333333--3-3--3--3--3333333--3-3-3--3-3-3---------3--3--3333333--3--3--|
|--3--3333333--3-3--3--3--3333333--3-3-3--3-3-3---------3--3--3333333--3--3--|


|--3-------8p7-----|
|----4--------8----|
|------5--------9--|
|--------6---------|
|------------------|
|------------------|





|--------------------------------------------------------------------------------------------------|
|--------------------------------------------------------------------------------------------------|
|--------------------------------------------------------------------------------------------------|
|--777-7-7-7--7777-777-7-7-7-77777-7-7-7-7777773333-3-3-3-3333-333-3-3-3-33333333-3-3-3-333333-----|
|--777-7-7-7--7777-777-7-7-7-77777-7-7-7-7777773333-3-3-3-3333-333-3-3-3-33333333-3-3-3-333333-----|
|--777-7-7-7--7777-777-7-7-7-77777-7-7-7-7777773333-3-3-3-3333-333-3-3-3-33333333-3-3-3-333333-----|



|------------------------------------------|
|------------------------------------------|
|------------------------------------------|
|-----9---10--12----9-------10--12---------|
|------------------------------------------|
|--7-7-777--7----7-7-7-7-777--7----7--7----|


|---------------------------------------|
|---------------------------------------|
|---------------------------------------|
|-----5----88----5---8/---5-------------|
|---------------------------------------|
|--3-3-333----3-3-3-----33--3-3-3333----|



|--7-----7------7----------|
|--8-----8--------8--------|
|--9-----9----------9------|
|--10----10-----------10---|
|--7--7--7--7777-----------|
|--7--7--7--7777-----------|


|--7-----7------7---------7--7--------7-----7---------------------|
|--8-----8--------8-------8--8--------8-------8-------------------|
|--9-----9----------9-----9--9--------9---------9------12/9-------|
|--10----10-----------10--10-10-------10----------10---x--x---7---|
|--7--7--7--7777----------7--7--7777777--7-7-----------10/7-0-7---|
|--7--7--7--7777----------7--7--7777777--7-7----------------0-7---|


|--3--------3-------3--3--------3---------3----3--------3--3--------3--------|
|--4--------4-------4--4--------4---------4------4------4--4--------4--------|
|--5--------5-------5--5--------5---------5--------5----5--5--------5--------|
|--6--------6-------6--6--------6---------6----------6--6--6--------6--------|
|--3--3333333--3-3--3--3--3333333--3-3-3--3-3-3---------3--3--3333333--3--3--|
|--3--3333333--3-3--3--3--3333333--3-3-3--3-3-3---------3--3--3333333--3--3--|


|--3-------8p7-----|
|----4--------8----|
|------5--------9--|
|--------6---------|
|------------------|
|------------------|


|---------------------------------------------------------|
|---------------------------------------------------------|
|---------------------------------------------------------|
|--2222-2222-2222-2222-22222-222-22-2222-22-22222222------|
|--0000-0000-0000-0000-00000-000-00-0000-00-00000000------|
|--3333-3333-3333-3333-33333-333-33-3333-33-33333333------|


|--------------------------------0-------------------------------------|
|--------------------------------8-------------------------------------|
|--------------------------9--10---------------------------------------|
|--5555-5555-5555-5555---7---------5555-5555-5555-5555----------7------|
|--0000-0000-0000-0000-------------0000-0000-0000-0000----8------------|
|--7777-7777-7777-7777-------------7777-7777-7777-7777------5-7--------|


|-------------------------------------------------------------------|
|-------------------------------------------------------------------|
|-------------------------------------------------------------------|
|-----2--------------------2--------------------------2-----2-------|
|-------------------------------------------------------------------|
|--333--333-33-33-33--3333--3333--33--333--3333--333----3333--------|


|----------------------------------------------------------------|
|----------------------------------------------------------------|
|----------------------------------------------------------------|
|-----5--------------------5----5-----------------5---5--3~------|
|--------------------------------------------------------3~------|
|--777--777-77-77-77--7777--7777--777-77-7777-777--777---3~------|


|---------------------------------------------------------|
|---------------------------------------------------------|
|---------------------------------------------------------|
|---------------------------------------------------------|
|---------------------------------------------------------|
|--3333-3333-3333-3333-33333-333-33-3333-33-33333333------|
Добавлено: 10.08.2013
Другие материалы по этой песне:
  • Аккорды и текст

Страница создана 10.08.2013
http://primanota.ru/misc-unsigned-bands/entities-revival-chords.htm
Привет, Гость.
Предлагаем пройти революционный курс по гитаре.
Подарок от PrimaNota.Ru, забирай!