PrimaNota.ru - самый крупный в мире бесплатный архив песенных текстов, аккордов, табулатур и нот


Misc Unsigned Bands - Eurobeat Brony - Find A Pet Euro Mix - таба

Регистрация Запомнить меня
Войти через:  Facebook Google Twitter Vk Yandex Mail.ru

Misc Unsigned Bands - Eurobeat Brony - Find A Pet Euro Mix - таба

Печатать
Просмотров: 43
     Find a Pet (Euro Mix)
     Eurobeat Brony
     Tabbed by Dawmasta

     Intro
E|--------------------------------------------------------------|
B|--------------------------------------------------------------|
G|--------6-----6--------6-----6--------6-----6--------6-----6--|
D|--------------------------------------------------------------|
A|--4--4-----4-----4--4-----4-----4--4-----4-----4--4-----4-----|
E|--------------------------------------------------------------|


E|--------------------------------------------------------------|
B|--------------------------------------------------------------|
G|--------6-----6--------6-----6--------6-----6-----------------|
D|-----------------------------------------------------6-----6--| x2
A|--4--4-----4-----4--4-----4-----4--4-----4--------------------|
E|-----------------------------------------------4--4-----4-----|


E|--------------------------------------------------------------|
B|--6--6--7--9-----6--6--7--9-----6--6--7--9-----6--6--7--9-----|
G|--------------6--------------6--------------6--------------6--|
D|--------------------------------------------------------------|
A|--------------------------------------------------------------|
E|--------------------------------------------------------------|

     Chorus 1
E|--9-----8-----9--------------------9-----8-----9-----8--6--5--6--8--|
B|--------------------9--7--6--7--9-----------------------------------|
G|-----6-----6-----6--------------------6-----6-----6-----------------|
D|--------------------------------------------------------------------|
A|--------------------------------------------------------------------|
E|--------------------------------------------------------------------|


E|--9-----8-----9--------------------11--------------11------13--8--|
B|--------------------9--7--6--7--9----------11----------11---------|
G|-----6-----6-----6---------------------12------12-----------------|
D|------------------------------------------------------------------|
A|------------------------------------------------------------------|
E|------------------------------------------------------------------|


E|--9-----8-----9-----6-----------6--9-----8-----9-----------------13--|
B|-----------------------7--6--7---------------------------10--13------|
G|-----6-----6-----6--------------------6-----6-----6--10--------------|
D|---------------------------------------------------------------------|
A|---------------------------------------------------------------------|
E|---------------------------------------------------------------------|


E|--9-----8-----9-----11------13--9--11--13--14----------18--14------16--|
B|------------------------11---------------------11--14----------16------|
G|-----6-----6-----6-----------------------------------------------------|
D|-----------------------------------------------------------------------|
A|-----------------------------------------------------------------------|
E|-----------------------------------------------------------------------|

     Verse 1
E|--------------------------------------------------------------|
B|-----6--------6--6--6--6--6--7--6--7--9--------6--------6--6--|
G|--6-----8--6-----------------------------6--8-----8--6--------|
D|--------------------------------------------------------------|
A|--------------------------------------------------------------|
E|--------------------------------------------------------------|


E|--------------------------------------------------------------|
B|--6--------6--6--6-----------------6-----7--7--7--7--7--6-----|
G|-----8--6-----------8--8--8--8--6-----8--------------------6--|
D|--------------------------------------------------------------|
A|--------------------------------------------------------------|
E|--------------------------------------------------------------|


E|--------------------------------------------------------------|
B|--------------------6--------6--7--7--7--7--7--7--7--7--7--7--|
G|--6--8--8--8--8--6-----8--8-----------------------------------|
D|--------------------------------------------------------------|
A|--------------------------------------------------------------|
E|--------------------------------------------------------------|


E|--------------------------------------------------------------|
B|--7--7--7--7--7--6--7--9--------6--------6--------9--7--6-----|
G|--------------------------6--8-----8--6-----8--6-----------8--|
D|--------------------------------------------------------------|
A|--------------------------------------------------------------|
E|--------------------------------------------------------------|


E|-----------------------------------9--------------------|
B|--6--7--9--------6--------6--6--6-----9--6--------------|
G|-----------6--8-----8--6--------------------8--6--8--6--|
D|--------------------------------------------------------|
A|--------------------------------------------------------|
E|--------------------------------------------------------|


E|--9--------------------------------------------------|
B|-----7--7--7--6--------6--6--6--9--9--9--------6-----|
G|-----------------6--6--------------------8--6-----8--|
D|-----------------------------------------------------|
A|-----------------------------------------------------|
E|-----------------------------------------------------|


E|-----------------9-----------------------------------------|
B|--------------------9-----------6--6--6--------7--6--------|
G|--8--8--8--8--6--------6--8--8-----------8--6--------8--6--|
D|-----------------------------------------------------------|
A|-----------------------------------------------------------|
E|-----------------------------------------------------------|


E|-----------------------------------|
B|-----------------------------------|
G|--9--9--9--9--9--9--8--6--6--8--6--|
D|-----------------------------------| To Chorus 1
A|-----------------------------------|
E|-----------------------------------|

     Verse 2
E|--------------------------------------------------------------|
B|--------6--------6--------9--7--6-----6--7--9--------6--------|
G|--6--8-----8--6-----8--6-----------8-----------6--8-----8--6--|
D|--------------------------------------------------------------|
A|--------------------------------------------------------------|
E|--------------------------------------------------------------|


E|-----------------------------------------------------------------|
B|--6--6--6--------6--6--------------9--------7--7--7--7--7--6-----|
G|-----------8--6--------8--8--8--8-----8-----------------------6--|
D|-----------------------------------------6-----------------------|
A|-----------------------------------------------------------------|
E|-----------------------------------------------------------------|


E|-----------------------------------------------------|
B|-----6--7--6-----------------------------------------|
G|--8-----------8--6--9--9--9--9--9--9--8--6--6--8--6--|
D|-----------------------------------------------------|
A|-----------------------------------------------------|
E|-----------------------------------------------------|


E|--------------------------------------------------------------|
B|--------------------------------------------------------------|
G|--6--6--5--5--5-----------------8--8--7--7--7--5--5-----------|
D|-----------------8--8--6--6--6-----------------------8--8--8--|
A|--------------------------------------------------------------|
E|--------------------------------------------------------------|


E|--------------------------6-----------------------5--6--|
B|-----8--6-----8--6-----8-----------------------6--------|
G|--8--------8--------8--------8--8--8--8--8--8-----------|
D|--------------------------------------------------------|
A|--------------------------------------------------------|
E|--------------------------------------------------------|


E|-----------------------------------------------------|
B|-----------7--6--6--9--6--6--7--6--------------6-----|
G|--8--8--8--------------------------8--6--6--6-----8--|
D|-----------------------------------------------------|
A|-----------------------------------------------------|
E|-----------------------------------------------------|


E|-----------------------------------------------6-----|
B|--------------7--7--9--7--7--9--9--9--9--9--7-----9--|
G|--6--6--8--6-----------------------------------------|
D|-----------------------------------------------------|
A|-----------------------------------------------------|
E|-----------------------------------------------------|

     Verse 3
E|-----------------------------------------------------------------|
B|--------6--------6--------9--7--6-----6--7--9--------6--6--6--6--|
G|--6--8-----8--6-----8--6-----------8-----------6--8--------------|
D|-----------------------------------------------------------------|
A|-----------------------------------------------------------------|
E|-----------------------------------------------------------------|


E|-----------------------------------------------------------|
B|--------6--6--7--9--7--6-----------------------------6--7--|
G|--6--8--------------------8--6--6--6--8--8--8--6--8--------|
D|-----------------------------------------------------------|
A|-----------------------------------------------------------|
E|-----------------------------------------------------------|


E|-----------------------------------------------------|
B|-----------------------------------------------------|
G|--6--8--8--6-----5--6--6--6--6--6--8--8--6--6--8--6--|
D|--------------8--------------------------------------|
A|-----------------------------------------------------|
E|-----------------------------------------------------|


E|-----------------------------------------------------------|
B|--------------------------6--7--9--9--6--------------------|
G|-----5--6--6--8--8--6--8-----------------6--8--9--6--8--9--|
D|--8--------------------------------------------------------|
A|-----------------------------------------------------------|
E|-----------------------------------------------------------|


E|-----------------------------|
B|-----------------------------|
G|--6--8--9--8--6--6--8--9--8--|
D|-----------------------------| To Chorus 1
A|-----------------------------|
E|-----------------------------|

     Breakdown
E|--8--8--8--8--8--8-----6--8--9--9--9--11--9--8--8--8--8--8-----8--9--|
B|--------------------9---------------------------------------9--------|
G|---------------------------------------------------------------------|
D|---------------------------------------------------------------------|
A|---------------------------------------------------------------------|
E|---------------------------------------------------------------------|


E|--9--9------------9-----11-----11--13--8--8--8--8--8--8-----|
B|--------9--11--9-----9------9----------------------------9--|
G|------------------------------------------------------------|
D|------------------------------------------------------------|
A|------------------------------------------------------------|
E|------------------------------------------------------------|


E|--6--8--9--9--9--11--9------9--12--17--16------7------7--|
B|------------------------10-----------------10-----10-----|
G|---------------------------------------------------------|
D|---------------------------------------------------------|
A|---------------------------------------------------------|
E|---------------------------------------------------------|


E|-----------------------------------------------------------7-----|
B|-----7--7--7--9--7--------------------7--------------7--7-----7--|
G|--9-----------------8--9--9--9--6--9-----8--8--9--6--------------|
D|-----------------------------------------------------------------|
A|-----------------------------------------------------------------|
E|-----------------------------------------------------------------|


E|-----------------------------------------7--------------7--|
B|-----7--7--7--9--7--------------------------9--9--9--9-----|
G|--9-----------------6--8--8--8--9--6--9--------------------|
D|-----------------------------------------------------------|
A|-----------------------------------------------------------|
E|-----------------------------------------------------------|


E|-----------------------------------------------------|
B|--7--7--7--9--7-----7--7--7--7--7-----7--7--9--7-----|
G|-----------------8-----------------6--------------8--|
D|-----------------------------------------------------|
A|-----------------------------------------------------|
E|-----------------------------------------------------|


E|--------------7-----------------------------7--7--------|
B|--7--9--9--9-----7--7--9--7--7--9--9--9--9--------7--7--|
G|--------------------------------------------------------|
D|--------------------------------------------------------|
A|--------------------------------------------------------|
E|--------------------------------------------------------|


E|-----------7--7--7--9--7--------6--6--6--6--6--6--6--6--6--|
B|--7--7--7-----------------7--9-----------------------------|
G|-----------------------------------------------------------|
D|-----------------------------------------------------------|
A|-----------------------------------------------------------|
E|-----------------------------------------------------------|


E|-----6--11--9--7-----------9--7--|
B|--7---------------------7--------|
G|------------------8--9-----------|
D|---------------------------------|
A|---------------------------------|
E|---------------------------------|

     Chorus 2/Outro
E|--7-----6-----7--------------------7-----6-----7-----6--4--3--4--6--|
B|--------------------7--5--4--5--7-----------------------------------|
G|-----4-----4-----4--------------------4-----4-----4-----------------|
D|--------------------------------------------------------------------|
A|--------------------------------------------------------------------|
E|--------------------------------------------------------------------|


E|--7-----6-----7--------------------9-------------9-----11--6--|
B|--------------------7--5--4--5--7---------9---------9---------|
G|-----4-----4-----4--------------------10-----10---------------|
D|--------------------------------------------------------------|
A|--------------------------------------------------------------|
E|--------------------------------------------------------------|


E|--7-----6-----7-----4-----------4--7-----6-----7---------------11--|
B|-----------------------5--4--5--------------------------8--11------|
G|-----4-----4-----4--------------------4-----4-----4--8-------------|
D|-------------------------------------------------------------------|
A|-------------------------------------------------------------------|
E|-------------------------------------------------------------------|


E|--7-----6-----7-----9-----11--7--9--11--12---------16--12------14--|
B|-----------------------9--------------------9--12----------14------|
G|-----4-----4-----4-------------------------------------------------|
D|-------------------------------------------------------------------|
A|-------------------------------------------------------------------|
E|-------------------------------------------------------------------|

     Repeat and fade
Добавлено: 07.12.2013
Другие материалы по этой песне:
  • Аккорды и текст

Страница создана 07.12.2013
http://primanota.ru/misc-unsigned-bands/eurobeat-brony-find-a-pet-euro-mix-chords.htm
Привет, Гость.
Предлагаем пройти революционный курс по гитаре.
Подарок от PrimaNota.Ru, забирай!