PrimaNota.ru - самый крупный в мире бесплатный архив песенных текстов, аккордов, табулатур и нот


Misc Unsigned Bands - District 24 - Cinnamon - таба

Регистрация Запомнить меня
Войти через:  Facebook Google Twitter Vk Yandex Mail.ru

Misc Unsigned Bands - District 24 - Cinnamon - таба

Печатать
Просмотров: 42
-------------------------------------------------------------------------------
                             Cinnamon - District 24
-------------------------------------------------------------------------------
Tabbed by: thedevilsguitar
E-mail: handcart2@hotmail.com

Tuning: Full-Step Down

INTRO & VERSE: Lead Guitar
e|------------------------------------------------------------------------------|
B|------------------------------------------------------------------------------|
G|------------------------------------------------------------------------------|
D|----4-3-3-4----4-3-3-4------4-3-3-4-----3--8-8-6------------------------------|
A|-------------------------2------------4---------------------------------------|
E|-2-----------2----------------------------------------------------------------|


Rhythm guitar:
e|------------------------------------------------------------------------------|
B|------------------------------------------------------------------------------|
G|-------------4---------6------------------------------------------------------|
D|--4----------4---------6------------------------------------------------------|
A|--4---x8-----2---x4----4---x4-------------------------------------------------|
E|--2---------------------------------------------------------------------------|

Chorus: Lead Guitar
e|---------------------------------------------------------------------------|
B|---------------------------------------------------------------------------|
G|------------------4-------4----------------------6-------6-----------------|
D|----6------6--------------------4-------4----------------------------------|
A|---------------2-----2--2--------------------4------4-4--------------------|
E|-4-----4-4-------------------2-----2-2-------------------------------------|

Chorus: Rhythm
e|---------------------------------------------------------------------------------|
B|---------------------------------------------------------------------------------|
G|---------4----------------6------------------------------------------------------|
D|--6------4-------4--------6------------------------------------------------------|
A|--6--x4--2--x4---4--------4---x4-------------------------------------------------|
E|--4--------------2---x4----------------------------------------------------------|

Bridge: Lead Guitar
e|---------------------------------------------------------------------------|
B|---------------------------------------------------------------------------|
G|---------------------------------------------------------------------------|
D|-----6-----8/-6------4-------6/-4-------2-------4/-2-------2-------4/-2----|
A|---------------------------------------------------------------------------|
E|--4-----4---------2------2----------0-------0----------0-------0-----------|

Bridge: Rhythm Guitar
e|--------------------------------------------------------------------------------|
B|--------------------------------------------------------------------------------|
G|--------------------------------------------------------------------------------|
D|--6------4------2---------------------------------------------------------------|
A|--6--x6--4--x6--2--x12----------------------------------------------------------|
E|--4------2------0---------------------------------------------------------------|

Lead Guitar: Solo
e|-----------------------------------------------------------------------------------|
B|-----------------------------------------------------------------------------------|
G|--------1-2-1---1------1-2-1-4-2-1-2-----------1-----------------------------------|
D|-----4--------4------2-------------------1-2-4----4-2---2-1------------------------|
A|-------------------0-------------------2---------------0-----4-2b------------------|
E|--0--------------------------------------------------------------------------------|


************************************

| /   slide up
| \   slide down
| h   hammer-on
| p   pull-off
| ~   vibrato
| +   harmonic
| x   Mute note
| b   Bend
| pb  Pre-bend
| br  Bend release
| pbr Pre-bend release
| brb Bend release bend

************************************
Добавлено: 10.08.2013
Другие материалы по этой песне:
  • Аккорды и текст

Страница создана 10.08.2013
http://primanota.ru/misc-unsigned-bands/district-24-cinnamon-chords.htm
Привет, Гость.
Предлагаем пройти революционный курс по гитаре.
Подарок от PrimaNota.Ru, забирай!