PrimaNota.ru - самый крупный в мире бесплатный архив песенных текстов, аккордов, табулатур и нот


Misc Unsigned Bands - Divisions - Continuity - таба

Регистрация Запомнить меня
Войти через:  Facebook Google Twitter Vk Yandex Mail.ru

Misc Unsigned Bands - Divisions - Continuity - таба

Печатать
Просмотров: 38
Guitar 2 
d|-------------|         
A|-------------|         
F|-------------| 2nd     
C|7~-9~-11~6~4~|  Time   
G|4~-------2~2~|         
C|4~-------2~2~|         
  
 
                                    
Guitar 2                          
d|-------------------------|---------------x--------|
A|-------------------------|---------------x--------|
F|-------------------------|---------------x-9/11-99| 
C|77777777-99999999-11     |7    6    0    x-x/-x-xx|
G|44444444-77777777--7(x16)|4(x8)2(x8)0(x8)x-7/10-77|
C|44444444-66666666--7     |4    2    0    x--------|

Guitar 2                          
d|-------------------------|---------------x----------|
A|-------------------------|---------------x----------|
F|-------------------------|---------------x----------|
C|77777777-99999999-11     |7    6    0    x-0     -0~|
G|44444444-77777777--7(x16)|4(x8)2(x8)0(x8)x-0(x12)-0~|
C|44444444-66666666--7     |4    2    0    x-0     -0~|


Guitar 2      1st            2nd                  play both times after 1st and 2nd
d|------| |----------------|-------|-/10-9----------------------------------12------------12|
A|------| |----------------|-------|------10~--------10------10----10--10-------10--10------|
F|------| |----------------|----9~-|-----------7--7-------7------13--13--13---13--13--13----|
C|6h7p6-| |----------------|---7~--|--------11-11-11---11-11--------------------------------|
G|-----7| |/9~-7~-4~-0-2p0~|/9~----|--------------------------------------------------------|
C|------| |----------.-----|-------|--------------------------------------------------------|

Guitar 2                     
d|-------------------------------------------------------------------|
A|-------------------------------------------------------------------|
F|-------------------------------------------------------------------| x4
C|-7--7----7--7----6--6----6--6----4--4----2--2----12--12---11--11^11|
G|--4--4-4--4--4-4--2--2-2--2--2-2--0--0-0--0--0-0---0---0-0--0------|
C|4--4--4-4--4--4-2--2--2-2--2--2-0--0--0-0--0--0-0---0---0-0--0-----|

Guitar 2
d|----------------------------------------------------|
A|----------------------------------------------------|
F|----------------------------------------------------|
C|9~-7~-7/14-14-14-14-14-14-14-14-14-14-14-14-14-14-14|
G|7~-4~-4/12-12-12-12-12-12-12-12-12-12-12-12-12-12-12|
C|6~-4~-4/11-11-11-11-11-11-11-11-11-11-11-11-11-11-11|


Guitar to      Play this 2x
d|------------------------------------------------------------------------------------------------|
A|----------------------------------------------------------------------101010-----17-17-17-17-17-|
F|------------------------------------------999-----14-14-13-13-999------x-x-x------x--x--x--x--x-|
C|7-7-7-7-7-7-7-7-7-6-6-6-6-6-6-6-6-6-6-000-xxx-000--x--x--x--x-xxx-000--7-7-7-000-14-14-14-14-14-|
G|4-4-4-4-4-4-4-4-4-2-2-2-2-2-2-2-2-2-2-000-777-000-12-12-11-11-777-000--------000----------------|
C|4-4-4-4-4-4-4-4-4-2-2-2-2-2-2-2-2-2-2-000-----000-----------------000--------000----------------|

   End on
  d|-----|
  A|-----|
  F|--9~-|
  C|--7~-|
  G|--7~-|
  C|--7~-|



Добавлено: 09.06.2013
Другие материалы по этой песне:
  • Аккорды и текст

Страница создана 09.06.2013
http://primanota.ru/misc-unsigned-bands/divisions-continuity-chords.htm
Привет, Гость.
Предлагаем пройти революционный курс по гитаре.
Подарок от PrimaNota.Ru, забирай!