PrimaNota.ru - самый крупный в мире бесплатный архив песенных текстов, аккордов, табулатур и нот


Misc Unsigned Bands - Dominus - Hypocrite - таба

Регистрация Запомнить меня
Войти через:  Facebook Google Twitter Vk Yandex Mail.ru

Misc Unsigned Bands - Dominus - Hypocrite - таба

Печатать
Просмотров: 42
Intro
B |-------------------------------------------------------------------------|
F#|-------------------------------------------------------------------------|
D |-------------------------------------------------------------------------| x3
A |-1-00-11-00-1-00-11-00-11-00-1-00-1-4-00-44-00-4-00-44-00-44-------------| 
E |-1-00-11-00-1-00-11-00-11-00-1-00-1-4-00-44-00-4-00-44-00-44-5---4-------|
A |-1-00-11-00-1-00-11-00-11-00-1-00-1-4-00-44-00-4-00-44-00-44--0-1--------|
      ..    ..   ..     ..    ..   ..    ..    ..   ..    ..

B |-------------------------------------------------------------------------|
F#|-------------------------------------------------------------------------|
D |-------------------------------------------------------------------------| x1
A |-1-00-11-00-1-00-11-00-11-00-1-00-1-4-00-44-00-4-00-44-00-44-------------| 
E |-1-00-11-00-1-00-11-00-11-00-1-00-1-4-00-44-00-4-00-44-00-44-------------|
A |-1-00-11-00-1-00-11-00-11-00-1-00-1-4-00-44-00-4-00-44-00-44-00-0-00-0---|
      ..    ..   ..    ..    ..   ..     ..    ..   ..    ..    ..   ..

B |-------------------------------------------------------------------------|
F#|-------------------------------------------------------------------------|
D |-------------------------------------------------------------------------| x1
A |-1-00-11-00-1-00-11-00-11-00-1-00-1-4-00-44-00-4-00-44-00-44-------------| 
E |-1-00-11-00-1-00-11-00-11-00-1-00-1-4-00-44-00-4-00-44-00-44-5---4-------|
A |-1-00-11-00-1-00-11-00-11-00-1-00-1-4-00-44-00-4-00-44-00-44--0-1--------|
      ..    ..   ..     ..    ..   ..    ..    ..   ..    ..

B |-------------------------------------------------------------------------|
F#|-------------------------------------------------------------------------|
D |-------------------------------------------------------------------------| x1
A |-1-00-11-00-1-00-11-00-11-00-1-00-1-4-00-44-00-4-00-44-00-44-------------| 
E |-1-00-11-00-1-00-11-00-11-00-1-00-1-4-00-44-00-4-00-44-00-44-------------|
A |-1-00-11-00-1-00-11-00-11-00-1-00-1-4-00-44-00-4-00-44-00-44-00-0-0000-0~|
      ..    ..   ..     ..    ..   ..    ..    ..   ..    ..    ..   ....

Bridge
B |-------------------------------------------------------------------------|
F#|-------------------------------------------------------------------------|
D |-------------------------------------------------------------------------|
A |-------------------------------------------------------------------------|
E |-1-111-1-11--------------------------------------------------------------|
A |-0-000-0-00-1b-----------------------------------------------------------|
    . ... . ..

Riff 1
B |-------------------------------------------------------------------------|
F#|-------------------------------------------------------------------------|
D |-------------------------------------------------------------------------|
A |-------------------------------------------------------------------------|
E |-1-111-1-111-111-1-111-1-111-111-----------------------------------------|
A |-0-000-0-000-000-0-000-0-000-000-0-00-0-0-0-0000-0-00-0-0-0-0000---------|
    . ... . ... ... . ... . ... ...   ..       ....   ..       ....

B |-------------------------------------------------------------------------|
F#|-------------------------------------------------------------------------|
D |-------------------------------------------------------------------------|
A |-------------------------------------------------------------------------|
E |-1-111-1-111-111-1-111-1-111-111-4-44-4-4-4-4444-4-44-4-4-4-4444---------|
A |-0-000-0-000-000-0-000-0-000-000-0-00-0-0-0-0000-0-00-0-0-0-0000---------|
    . ... . ... ... . ... . ... ...   ..       ....   ..       ....

Breakdown 1
B |-------------------------------------------------------------------------|
F#|-------------------------------------------------------------------------|
D |-------------------------------------------------------------------------|
A |-------------------------------------------------------------------------|
E |-1-1-1-1-1-1-1-1-111-111-1-1-1-1-1-1-1-1-1-------------------------------|
A |-0-0-0-0-0-0-0-0-000-000-0-0-0-0-0-0-0-0-0-1b----------------------------|
    . . . . . . . . ... ... . . . . . . . .  

B |-------------------------------------------------------------------------|
F#|-------------------------------------------------------------------------|
D |-------------------------------------------------------------------------|
A |-------------------------------------------------------------------------|
E |-1-1-1-1-1-1-1-1-111-111-1-1-1-1-1-1-1-111-11111~------------------------|
A |-0-0-0-0-0-0-0-0-000-000-0-0-0-0-0-0-0-000-00000~------------------------|
    . . . . . . . . ... ... . . . . . .   ..  ....

Riff 2
B |-------------------------------------------------------------------------|
F#|-------------------------------------------------------------------------|
D |-------------------------------------------------------------------------|
A |-0-1-8-7-5-4-5-4-1-5-4-1-------------------------------------------------| x2
E |-0-1-8-7-5-4-5-4-1-5-4-1-------------------------------------------------|
A |-0-1-8-7-5-4-5-4-1-5-4-1-------------------------------------------------|
    

B |-------------------------------------------------------------------------|
F#|-------------------------------------------------------------------------|
D |-------------------------------------------------------------------------|
A |-------------------------------------------------------------------------| x1
E |-------------------------------------------------------------------------|
A |-0-1-8-7-5-4-5-4-1-5-4-1-------------------------------------------------|


B |-------------------------------------------------------------------------|
F#|-------------------------------------------------------------------------|
D |-------------------------------------------------------------------------|
A |-0-1-8-7-5-4-5-4-1-5-4-1-------------------------------------------------| x1
E |-0-1-8-7-5-4-5-4-1-5-4-1-------------------------------------------------|
A |-0-1-8-7-5-4-5-4-1-5-4-1-------------------------------------------------|


Riff 3

B |-------------------------------------------------------------------------|
F#|-------------------------------------------------------------------------|
D |-------------------------------------------------------------------------|
A |-0-1-8-4-0-1-------------------------------------------------------------| x2
E |-0-1-8-4-0-1-0-0-0-0-0-0-------------------------------------------------|
A |-0-1-8-4-0-1-1-1-1-1-1-1-------------------------------------------------|
                . . . . . .

Breakdown 2
B |----------------------------------------R---------------------------------|
F#|----------------------------------------R---------------------------------|
D |----------------------------------------R---------------------------------|
A |----------------------------------------R---------------------------------|
E |-0-0-0-0-0-0-0-0-000-000-0-0-0-0-0-0-0-0-0--------------------------------|
A |-1-1-1-1-1-1-1-1-111-111-1-1-1-1-1-1-1-1-1-1b-----------------------------|
    . . . . . . . . ... ... . . . . . . . . . 

B |----------------------------------------R---------------------------------|
F#|----------------------------------------R---------------------------------|
D |----------------------------------------R---------------------------------|
A |----------------------------------------R---------------------------------|
E |-0-0-0-0-0-0-0-0-000-000-0-0-0-0-0-0-0-0-0-0-0-0~-------------------------|
A |-1-1-1-1-1-1-1-1-111-111-1-1-1-1-1-1-1-1-1-1-1-1~-------------------------|
    . . . . . . . . ... ... . . . . . . . . . . .

Breakdown 3
  
B |--------------------------------------------------------------------------|
F#|--------------------------------------------------------------------------|
D |--------------------------------------------------------------------------|
A |--------------------------------------------------------------------------|
E |-0-0-0-0-0-0-0-0-0000-0000-0-0-0-0-0-0-0-0-0------------------------------|
A |-1-1-1-1-1-1-1-1-1111-1111-1-1-1-1-1-1-1-1-1------------------------------|
    . . . . . . . . .... .... . . . . . . . . .

B |--------------------------------------------------------------------------|
F#|--------------------------------------------------------------------------|
D |--------------------------------------------------------------------------|
A |--------------------------------------------------------------------------|
E |-0-0-0-0-0-0-0-0-0000-0000-0-0-0-0-0-0-0-0-0000-0000----------------------|
A |-1-1-1-1-1-1-1-1-1111-1111-1-1-1-1-1-1-1-1-1111-1111----------------------|
    . . . . . . . . .... .... . . . . . . . . .... ....

Breakdown 2
B |----------------------------------------R---------------------------------|
F#|----------------------------------------R---------------------------------|
D |----------------------------------------R---------------------------------|
A |----------------------------------------R---------------------------------|
E |-0-0-0-0-0-0-0-0-000-000-0-0-0-0-0-0-0-0-0--------------------------------|
A |-1-1-1-1-1-1-1-1-111-111-1-1-1-1-1-1-1-1-1-1b-----------------------------|
    . . . . . . . . ... ... . . . . . . . . . 

B |----------------------------------------R---------------------------------|
F#|----------------------------------------R---------------------------------|
D |----------------------------------------R---------------------------------|
A |----------------------------------------R---------------------------------|
E |-0-0-0-0-0-0-0-0-000-000-0-0-0-0-0-0-0-0-3-2-1-0--------------------------|
A |-1-1-1-1-1-1-1-1-111-111-1-1-1-1-1-1-1-1-3-2-1-0--------------------------|
    . . . . . . . . ... ... . . . . . . . . . . .

Leads For Breakdown 3
B |---------------------------------------------------------------------------|
F#|---------------------------------------------------------------------------|
D |---------------------------------------------------------------------------|
A |--0---0---0---0---1---1---1------------------------------------------------| x2
E |-4-4-4-4-4-4-4-4-5-5-5-5-5-5-5---------------------------------------------|
A |----0---0---0---0---0---0---0-0-1B-----------------------------------------|



-KEY-
b = bend
R = rake
~ = ring out
. = palm mute
Добавлено: 03.12.2013
Другие материалы по этой песне:
  • Аккорды и текст

Страница создана 03.12.2013
http://primanota.ru/misc-unsigned-bands/dominus-hypocrite-chords.htm
Привет, Гость.
Предлагаем пройти революционный курс по гитаре.
Подарок от PrimaNota.Ru, забирай!