PrimaNota.ru - самый крупный в мире бесплатный архив песенных текстов, аккордов, табулатур и нот


Misc Unsigned Bands - Descending Beneath - Psychos In The Street - таба

Регистрация Запомнить меня
Войти через:  Facebook Google Twitter Vk Yandex Mail.ru

Misc Unsigned Bands - Descending Beneath - Psychos In The Street - таба

Печатать
Просмотров: 49
psycho street theme song
tune-Drop C
Artist-Descending beneath
Album-none
C-G-C-F-A-D


(intro/outro-chorus effect)
-----------------------------------------------|
-----------------------------------------------|
12(let ring 7 seconds)-------------------------|
-----------------------------------------------|
-----------------------------------------------|
-----------------------------------------------|

(intro part 2-strum really fast-distorted)
----------------------------------------------|
----------------------------------------------|
--------------------------------4b--3-4-------|
----------------------------4-3----4---3-2b---|
---------------------------2------------------|
--0000000000000000000000000-------------------| x2
pm.........................

(main rift)
---------------------|
---------------------|
---------------------| play till pre-chorus
---------------------|
-5x16-8x16-5x16-3x16-|

(pre-chorus)
7-8-6-7-----------------------------|
------------------------------------|
-----------------------4b--3-4------|
-------------------4-3----4---3-2b--|
------------------2-----------------|
--------0000000000------------------|
      pm..........

(chorus)
-----------------------|
-----------------------|
-----------------------|
-----------------------| (repeat till chorus ends then finish playing after
5---9/8/7-5---14/13/12-| lyrics)
3x8-7/6/5-3x8-12/11/10-|

(main rift-play till next chorus)
(chorus)

(solo)
7h8p7-6-6h7-6----------[7-8-10-8-7-5]-|(repeat whats boxed 3 times)
--------------7b----------------------|
-----------------6b-7b----------------|
--------------------------------------|
--------------------------------------|
--------------------------------------|

(solo part 2-technical tapping and style-really fast)
t9p3h5x4-t10p3h5x4-t8p3h5x4-t11p3h5-t13p3h5-t14==|
-------------------------------------------------| 
-------------------------------------------------| 
-------------------------------------------------|
-------------------------------------------------|
-------------------------------------------------|

(main rift-till all lyrics end)
(outro)
Добавлено: 30.08.2013
Другие материалы по этой песне:
  • Аккорды и текст

Страница создана 30.08.2013
http://primanota.ru/misc-unsigned-bands/descending-beneath-psychos-in-the-street-chords.htm
Привет, Гость.
Предлагаем пройти революционный курс по гитаре.
Подарок от PrimaNota.Ru, забирай!