PrimaNota.ru - самый крупный в мире бесплатный архив песенных текстов, аккордов, табулатур и нот


Misc Unsigned Bands - Deseized - Amy To The Ground - таба

Регистрация Запомнить меня
Войти через:  Facebook Google Twitter Vk Yandex Mail.ru

Misc Unsigned Bands - Deseized - Amy To The Ground - таба

Печатать
Просмотров: 38
-------------------------------------------------------------------------------
		     Amy to the Ground - DESEIZED
-------------------------------------------------------------------------------

www.deseized.com
www.myspace.com/deseized
http://www11.nrk.no/urort/user/default.aspx?id=13015
http://www.facebook.com/pages/DESEIZED/9288512365?ref=ts

Tabbed by:Semming
Email:

Tuning: H F# H E G# C#



Main RIff:

C#|---------------------------------------------------------------------------|
G#|---------------------------------------------------------------------------|
E |---------------------------------------------------------------------------|
H |-------------------------------------------------5-4-7---------------------|
F#|-0-------0-0--1--0---0-------0-0----1--0-----0---3-2-5---------------------|
H |-0---5---0-0--1--0---0---5---0-0----1--0-----0-----------------------------|

C#|---------------------------------------------------------------------------|
G#|---------------------------------------------------------------------------|
E |---------------------------------------------------------------------------|
H |----------------------------------------5-4--------------------------------|
F#|-0-------0-0--1--0---0-------0-0---0-0--3-2--0-0--3-4----------------------|
H |-0---5---0-0--1--0---0---5---0-0---0-0-------0-0--3-4----------------------|

C#|---------------------------------------------------------------------------|
G#|---------------------------------------------------------------------------|
E |---------------------------------------------------------------------------|
H |-------------------------------------------------5-4-7---------------------|
F#|-0-------0-0--1--0---0-------0-0----1--0-----0---3-2-5---------------------|
H |-0---5---0-0--1--0---0---5---0-0----1--0-----0-----------------------------|

C#|---------------------------------------------------------------------------|
G#|---------------------------------------------------------------------------|
E |---------------------------------------------------------------------------|
H |---------------------------------------------------------------------------|
F#|-0-------0-0--1--0---0-0----1---4---3---6----------------------------------|
H |-0---5---0-0--1--0---0-0----1---4---3---6----------------------------------|


Vers 1:

C#|---------------------------------------------------------------------------|
G#|---------------------------------------------------------------------------|
E |---------------------------------------------------------------------------|
H |-----------------------------5-8-7-------------------------------5-4-7-----|
F#|----3-3------3-3------3-3-3--3-6-5-------------------------------3-2-5-----|
H |-5--3-3---5--3-3---5--3-3-3----------5--3-3---5--3-3---5-3-3-3-------------| X2

C#|---------------------------------------------------------------------------|
G#|---------------------------------------------------------------------------|
E |---------------------------------------------------------------------------|
H |----------5-5-5-5-5-5-5-5-5-5-5-5-----------5-5-5-5-5-5-5-5-5-5-5-5--------|
F#|---------------------------------------------------------------------------|
H |-5--3-3-----------------------------5--3-3---------------------------------|

C#|---------------------------------------------------------------------------|
G#|---------------------------------------------------------------------------|
E |---------------------------------------------------------------------------|
H |----------5-5-5-5-5-5-5-5-5-5-5-5-----------5-5-5-5-5-5-5-5-5-5-5-5--------|
F#|---------------------------------------------------------------------------|
H |-5--3-3-----------------------------5--3-3--5-5-5-5-5-5-5-5-5-5-5-5--------|


Pre Chorus 1:

C#|---------------------------------------------------------------------------|
G#|---------------------------------------------------------------------------|
E |---------------------------------------------------------------------------|
H |----------------------------------------------------------0--0--0----------|
F#|----------------------------------------------------------0--0--0---3~-----|
H |-0--0-0--1p0---1p0---1p0---0-0-0--1p0--0-0--1p0--1p0--0---0--0--0----------|

C#|---------------------------------------------------------------------------|
G#|---------------------------------------------------------------------------|
E |---------------------------------------------------------------------------|
H |------------------------------------------------------0--0--0--0-----------|
F#|------------------------------------------------------0--0--0--0----2/4-4-4|
H |-0--0-0--1p0---1p0---1p0---0-0-0--1p0--0-0--1p0-0-0---0--0--0--0----2/4-4-4|



Ref (git 1):

C#|-----------------------------------------------------0-0-0-0-0-0-0-0-------|
G#|-----------------------------------------------------0-0-0-0-0-0-0-0-------|
E |-----------------------------------4-4-4-4-4-4-4-4---8-8-8-8-8-8-8-8-------|
H |-5-5-5-5-5-5-5-5-5-5-5-5-5-5-5-5---4-4-4-4-4-4-4-4---8-8-8-8-8-8-8-8-------|
F#|-5-5-5-5-5-5-5-5-5-5-5-5-5-5-5-5---2-2-2-2-2-2-2-2---6-6-6-6-6-6-6-6-------|
H |-5-5-5-5-5-5-5-5-5-5-5-5-5-5-5-5-------------------------------------------|

C#|-----------------------------------------------------0-0--0-0--0-0--0-0----|
G#|-----------------------------------------------------0-0--0-0--0-0--0-0----|
E |-----------------------------------4-4-4-4-4-4-4-4---8-8--8-8--8-8--8-8----|
H |-5-5-5-5-5-5-5-5-5-5-5-5-5-5-5-5---4-4-4-4-4-4-4-4---8-8--8-8--8-8--8-8----|
F#|-5-5-5-5-5-5-5-5-5-5-5-5-5-5-5-5---2-2-2-2-2-2-2-2---6-6--6-6--6-6--6-6----|
H |-5-5-5-5-5-5-5-5-5-5-5-5-5-5-5-5-------------------------------------------|


Ref (git 2)

C#|---------------------------------------------------------------------------|
G#|-12----12----12----12----12----12-10----10----10----7---7------------------|
E |---12----12----12----12----12-------11----11----11---8---8-----------------|
H |-----9-----9-----9-----9-----9--------9-----9-----9---9---9----------------|
F#|---------------------------------------------------------------------------|
H |---------------------------------------------------------------------------|

C#|---------------------------------------------------------------------------|
G#|-12----12----12----12----12----12-10----10----10------7-7--7-7--7-7--7-7---|
E |---12----12----12----12----12-------11----11----11----8-8--8-8--8-8--8-8---|
H |-----9-----9-----9-----9-----9--------9-----9---------9-9--9-9--9-9--9-9---|
F#|---------------------------------------------------------------------------|
H |---------------------------------------------------------------------------|






		Main Riff X 1


Vers 2:

C#|---------------------------------------------------------------------------|
G#|---------------------------------------------------------------------------|
E |---------------------------------------------------------------------------|
H |---------------------------------------------------------------------------|
F#|----3-3------3-3------3-3-3----3-3----3-3----3-3----3---3-3----------------|
H |-5--3-3---5--3-3---5--3-3-3----3-3-5--3-3-5--3-3-5--3-5-3-3----------------|

C#|---------------------------------------------------------------------------|
G#|---------------------------------------------------------------------------|
E |---------------------------------------------------------------------------|
H |---------------------------------------------------------------------------|
F#|----3-3------3-3------3-3-3----3-3----3-3----3-3----3-3--2-2---------------|
H |-5--3-3---5--3-3---5--3-3-3----3-3-5--3-3-5--3-3-5--3-3--2-2---------------|

Pre-chorus 2:

C#|---------------------------------------------------------------------------|
G#|---------------------------------------------------------------------------|
E |----------------------------------------------------------5-5-5-5-5-5-5----|
H |----------------------------------------------------------4-4-4-4-4-4-4----|
F#|-0-3-6-0---0-0-3-6-0---00-00---0-3-6-0---0-0-3-6-0---0-0-------------------|
H |-0-3-6-0---0-0-3-6-0---00-00---0-3-6-0---0-0-3-6-0---0-0-------------------|

C#|---------------------------------------------------------------------------|
G#|---------------------------------------------------------------------------|
E |---------------------------------------------------------------------------|
H |---------------------------------------------------------------------------|
F#|-0-3-6-0---0-0-3-6-0---00-00---0-3-6-0---0-0-0-0-0---2/4-4-4---------------|
H |-0-3-6-0---0-0-3-6-0---00-00---0-3-6-0---0-0-0-0-0---2/4-4-4---------------|


		REF


		Main riff x 2 (shuffle 2. gang)



Bridge (git 1):

C#|---------------------------------------------------------------------------|
G#|---------------------------------------------------------------------------|
E |-------8-8-8-------6-6-6-------4/5---4/5---4/5-5--------8-8-8-------6-6-6--|
H |---------------------------------------------------------------------------|
F#|-0-0-0-6-6-6-0-0-0-4-4-4-0-0-0-2/4-0-2/4-0-2/4-4--0-0-0-6-6-6-0-0-0-4-4-4--|
H |-0-0-0-------0-0-0-------0-0-0-----0-----0--------0-0-0-------0-0-0--------|

C#|---------------------------------------------------------------------------|
G#|---------------------------------------------------------------------------|
E |-------4/5---4/5---4/5-5---------------------------------------------------|
H |---------------------------------------------------------------------------|
F#|-0-0-0-2/4-0-2/4-0-2/4-4---------------------------------------------------|
H |-0-0-0-----0-----0---------------------------------------------------------|

C#|---------------------------------------------------------------------------|
G#|---------------------------------------------------------------------------|
E |-------11  11------9-9-9-------4/5---4/5---4/5-5--------11 11-------9-9-9--|
H |---------------------------------------------------------------------------|
F#|-0-0-0-9-9-9-0-0-0-7-7-7-0-0-0-2/4-0-2/4-0-2/4-4--0-0-0-9-9-9-0-0-0-7-7-7--|
H |-0-0-0-------0-0-0-------0-0-0-----0-----0--------0-0-0-------0-0-0--------|

C#|---------------------------------------------------------------------------|
G#|---------------------------------------------------------------------------|
E |-------4/5---4/5---4/5-5---------------------------------------------------|
H |---------------------------------------------------------------------------|
F#|-0-0-0-2/4-0-2/4-0-2/4-4---------------------------------------------------|
H |-0-0-0-----0-----0---------------------------------------------------------|




Bridge (git 2):



C#|---------------------------------------------------------------------------|
G#|---------------------------------------------------------------------------|
E |-------8-8-8-------6-6-6-------4/5---4/5---4/5-5--------8-8-8-------6-6-6--|
H |---------------------------------------------------------------------------|
F#|-0-0-0-6-6-6-0-0-0-4-4-4-0-0-0-2/4-0-2/4-0-2/4-4--0-0-0-6-6-6-0-0-0-4-4-4--|
H |-0-0-0-------0-0-0-------0-0-0-----0-----0--------0-0-0-------0-0-0--------|

C#|---------------------------------------------------------------------------|
G#|---------------------------------------------------------------------------|
E |-------4/5---4/5---4/5-5---------------------------------------------------|
H |---------------------------------------------------------------------------|
F#|-0-0-0-2/4-0-2/4-0-2/4-4---------------------------------------------------|
H |-0-0-0-----0-----0---------------------------------------------------------|

C#|-------------------------------11-11---11-11---11-11-11--------------------|
G#|-------------------------------10-10---10-10---10-10-10--------------------|
E |-------8-8-8-------6-6-6-------11-11   11-11-  11-11-11-------8-8-8--------|
H |-------------------------------10-10---10-10-- 10-10-10--------------------|
F#|-0-0-0-6-6-6-0-0-0-4-4-4-0-0-0-------0-------0----------0-0-0-6-6-6-0-0-0--|
H |-0-0-0-------0-0-0-------0-0-0-------0-------0----------0-0-0-------0-0-0--|

C#|-------------11-11---11-11---11-11-----------------------------------------|
G#|-------------10-10---10-10---10-10-----------------------------------------|
E |-6-6-6-------11-11---11-11---11-11-----------------------------------------|
H |-------------10-10---10-10---10-10-----------------------------------------|
F#|-4-4-4-0-0-0-------0-------0-----------------------------------------------|
H |-------0-0-0-------0-------0-----------------------------------------------|

		X2


Bridgeoverganggreie (git 1):

C#|---------------------------------------------------------------------------|
G#|---------------------------------------------------------------------------|
E |---------------------------------------------------------------------------|
H |-2-2-2-2-2-2-3p2-2-2-2-2-2-2-2-2-2-2-----2-2-----2-2-2-2-2-2-3p2-----------|
F#|-2-2-2-2-2-2-----2-2-2-2-2-2-2-2-2-2-3p2-2-2-----2-2-2-2-2-2---------------|
H |-2-2-2-2-2-2-----2-2-2-2-2-2-2-2-2-2-----2-2-5p3-2-2-2-2-2-2---------------|

C#|---------------------------------------------------------------------------|
G#|---------------------------------------------------------------------------|
E |---------------------------------------------------------------------------|
H |-2-2-2-2-2-2-2-2-2-2----------5--7--8--------------------------------------|
F#|-2-2-2-2-2-2-2-2-2-2-5--7--8-----------------------------------------------|
H |-2-2-2-2-2-2-2-2-2-2-------------------------------------------------------|

C#|---------------------------------------------------------------------------|
G#|---------------------------------------------------------------------------|
E |---------------------------------------------------------------------------|
H |-2-2-2-2-2-2-3p2-2-2-2-2-2-2-2-2-2-2-----2-2-----2-2-2-2-2-2-4-4-4-4-4-4---|
F#|-2-2-2-2-2-2-----2-2-2-2-2-2-2-2-2-2-3p2-2-2-----0-0-0-0-0-0-2-2-2-2-2-2---|
H |-2-2-2-2-2-2-----2-2-2-2-2-2-2-2-2-2-----2-2-5p3---------------------------|

C#|---------------------------------------------------------------------------|
G#|---------------------------------------------------------------------------|
E |---------------------------------------------------------------------------|
H |-5-5-5-5-5-5-8-8-8-8-8-8---------------------------------------------------|
F#|-3-3-3-3-3-3-6-6-6-6-6-6---------------------------------------------------|
H |---------------------------------------------------------------------------|

Bridgeoverganggreie (git 2):

C#|---------------------------------------------------------------------------|
G#|---------------------------------------------------------------------------|
E |---------------------------------------------------------------------------|
H |-2-2-2-2-2-2-3p2-2-2-2-2-2-2-2-2-2-2-----2-2-----2-2-2-2-2-2-3p2-----------|
F#|-2-2-2-2-2-2-----2-2-2-2-2-2-2-2-2-2-3p2-2-2-----2-2-2-2-2-2---------------|
H |-2-2-2-2-2-2-----2-2-2-2-2-2-2-2-2-2-----2-2-5p3-2-2-2-2-2-2---------------|

C#|---------------------------------------------------------------------------|
G#|---------------------------------------------------------------------------|
E |---------------------------------------------------------------------------|
H |-2-2-2-2-2-2-2-2-2-2------------8--10--12----------------------------------|
F#|-2-2-2-2-2-2-2-2-2-2-8--10--12---------------------------------------------|
H |-2-2-2-2-2-2-2-2-2-2-------------------------------------------------------|

C#|---------------------------------------------------------------------------|
G#|---------------------------------------------------------------------------|
E |-------------------------------------------------16\14-14-14-14-14.14\12-12|
H |-2-2-2-2-2-2-3p2-2-2-2-2-2-2-2-2-2-2-----2-2-------------------------------|
F#|-2-2-2-2-2-2-----2-2-2-2-2-2-2-2-2-2-3p2-2-2-----14\12-12-12-12-12-12\10-10|
H |-2-2-2-2-2-2-----2-2-2-2-2-2-2-2-2-2-----2-2-5p3---------------------------|

C#|---------------------------------------------------------------------------|
G#|---------------------------------------------------------------------------|
E |-12-12-12-12-11-11-11-11-11-9-9-9-9-9--------------------------------------|
H |---------------------------------------------------------------------------|
F#|-10-10-10-10\9--9--9--9--9--7-7-7-7-7--------------------------------------|
H |---------------------------------------------------------------------------|



6/8 Megarefreng (git 1): 

C#|---------------------------------------------------------------------------|
G#|---------------------------------------------------------------------------|
E |-------------------------4-4-4-4-4-4-8-8-8-8-8-8---------------------------|
H |-5-5-5-5-5-5-5-5-5-5-5-5-4-4-4-4-4-4-8-8-8-8-8-8-5-5-5-5-5-5-5-5-5-5-5-5---|
F#|-5-5-5-5-5-5-5-5-5-5-5-5-2-2-2-2-2-2-6-6-6-6-6-6-5-5-5-5-5-5-5-5-5-5-5-5---|
H |-5-5-5-5-5-5-5-5-5-5-5-5-------------------------5-5-5-5-5-5-5-5-5-5-5-5---|

C#|---------------------------------------------------------------------------|
G#|---------------------------------------------------------------------------|
E |-4-4-4-4-4-4-8-8-8-8-8-8---------------------------------------------------|
H |-4-4-4-4-4-4-8-8-8-8-8-8---------------------------------------------------|
F#|-2-2-2-2-2-2-6-6-6-6-6-6---------------------------------------------------|
H |---------------------------------------------------------------------------|

6/8 Megarefreng (git 2):

C#|---------------------------------------------------------------------------|
G#|---------------------------------------------------------------------------|
E |-12-12-12-12-12-12-12-12-12-12-12-12-11-11-11-11-11-11-8-8-8-8-8-8---------|
H |---------------------------------------------------------------------------|
F#|-10-10-10-10-10-10-10-10-10-10-10-10-9--9--9--9--9--9--6-6-6-6-6-6---------|
H |---------------------------------------------------------------------------|


Hengeparti (git 1):

C#|---------------------------------------------------------------------------|
G#|---------------------------------------------------------------------------|
E |-5--------7-------5-------------5------7------5----0-----------------------|
H |-5--------7-------5------0------5------7------5----0-----------------------|
F#|-3--------5-------3------0------3------5------3----0-----------------------|
H |-------------------------0-------------------------------------------------|


Hengeparti (git 2):

C#|---------------------------------------------------------7------5----7--+5-|
G#|--------------------------------5------3------5----3-----8------7----8--+5-|
E |--------------------------------4------0------4----4-----9------7----9--+5-|
H |-5--------0-------2------0------5------4------5----5-----------------------|
F#|---------------------------------------------------------------------------|
H |-5--------0-------2------0-------------------------------------------------|


Total destruction take-off parti (hoved, bare korder):

   (A,    H    C#)
C#|-0-----0----0--------------------------------------------------------------|
G#|-0-----0----0--------------------------------------------------------------|
E |-0-----7----0--------------------------------------------------------------|
H |-10----7----2--------------------------------------------------------------|
F#|-10----0----2--------------------------------------------------------------|
H |-10----0----2--------------------------------------------------------------|

Total destruction take-off parti (lead1):

C#|-12-12-12-12-12------------------------------------------------------------|
G#|-----------------12-12-12-12-13-13-13-13-12-12-12--------------------------|
E |---------------------------------------------------------------------------|
H |---------------------------------------------------------------------------|
F#|---------------------------------------------------------------------------|
H |---------------------------------------------------------------------------|


Total destruction take-off parti (lead2):

C#|-15-15-15-15-15-14-14-14-14-15-15-15-15-14-14-14---------------------------|
G#|---------------------------------------------------------------------------|
E |---------------------------------------------------------------------------|
H |---------------------------------------------------------------------------|
F#|---------------------------------------------------------------------------|
H |---------------------------------------------------------------------------|


Main riff x2:

C#|---------------------------------------------------------------------------|
G#|---------------------------------------------------------------------------|
E |---------------------------------------------------------------------------|
H |-------------------------------------------------5-4-7---------------------|
F#|-0-------0-0--1--0---0-------0-0----1--0-----0---3-2-5---------------------|
H |-0---5---0-0--1--0---0---5---0-0----1--0-----0-----------------------------|

C#|---------------------------------------------------------------------------|
G#|---------------------------------------------------------------------------|
E |---------------------------------------------------------------------------|
H |----------------------------------------5-4--------------------------------|
F#|-0-------0-0--1--0---0-------0-0---0-0--3-2--0-0--3-4----------------------|
H |-0---5---0-0--1--0---0---5---0-0---0-0-------0-0--3-4----------------------|

C#|---------------------------------------------------------------------------|
G#|---------------------------------------------------------------------------|
E |---------------------------------------------------------------------------|
H |-------------------------------------------------5-4-7---------------------|
F#|-0-------0-0--1--0---0-------0-0----1--0-----0---3-2-5---------------------|
H |-0---5---0-0--1--0---0---5---0-0----1--0-----0-----------------------------|

C#|------------------------------------------------0--------------------------|
G#|------------------------------------------------0--------------------------|
E |------------------------------------------------0--------------------------|
H |------------------------------------------------2--------------------------|
F#|-0-------0-0--1--0---0-0----1---4---3---6-------2--------------------------|
H |-0---5---0-0--1--0---0-0----1---4---3---6-------2--------------------------|






| /  slide up
| \  slide down
| h  hammer-on
| p  pull-off
| ~  vibrato
| +  harmonic
| x  Mute note
===============================================================================
Добавлено: 06.12.2013
Другие материалы по этой песне:
  • Аккорды и текст

Страница создана 06.12.2013
http://primanota.ru/misc-unsigned-bands/deseized-amy-to-the-ground-chords.htm
Привет, Гость.
Предлагаем пройти революционный курс по гитаре.
Подарок от PrimaNota.Ru, забирай!