PrimaNota.ru - самый крупный в мире бесплатный архив песенных текстов, аккордов, табулатур и нот


Misc Unsigned Bands - Devarium - As Time Goes By - таба

Регистрация Запомнить меня
Войти через:  Facebook Google Twitter Vk Yandex Mail.ru

Misc Unsigned Bands - Devarium - As Time Goes By - таба

Печатать
Просмотров: 40
-------------------------------------------------------------------------------
                             As time goes by - Devarium
-------------------------------------------------------------------------------
Tabbed by:
Email:Bnewcombe@aol.com

Tuning:eBGDAE
Intro
e|-----------------------------------------------------------------------------|
B|----------0h1p0---------------0h1p0-----------------3------------------------|
G|------2-----------2---------0-----------0-----------------0----0-------------|
D|----2---------------------2------------------------------------0-------------|
A|--0---------------------3-------------------------2-2------------------------|
E|-------------------------------------------------3---------------------------|

e|----------------------|       4x
B|-----------0h1p0------|
G|-------2-----------2--|
D|-----2----------------|
A|---0------------------|
E|----------------------|
finger picking verse
e|-----------------------------------------------------------------------------|
B|----1------1--------1-------1-------1-------1--------------------------------|
G|------------------------2------------------------0---------------------------|
D|-----------------------------------------------------------------------------|
A|----0-0-0-0-0-0----------3--3-3-3-3-3----------------------------------------|
E|-----------------------------------------------------------------------------|

e|-------------------------------------------------------------------------------|
B|---3------3-------3------1------1-------1--------------------------------------|
G|----------------------0----------------------2---------------------------------|     4x
D|-------------------------------------------------------------------------------|
A|---------------------------0-0-0-0-0-0-----------------------------------------|
E|---3-3-3-3-3-3-----------------------------------------------------------------|
Riff
e|-----------------------------------------------------------------------------|
B|-----------------------------------------------------------------------------|
G|-----------------------------------------------------------------------------|
D|--4-4-4-4-x-x-x-x-7-7-x-x----------------------------------------------------|     2x
A|---2-2-2-2-x-x-x-x-5-5-x-x--x-x-x-x--7-7-7-7-x-x-x-x-9-9---------------------|
E|----------------------------------x-x-x-x--5-5-5-5-x-x-x-x-7-7---------------|
Solo:
e|------------T----T----T----T----T-----T----T----T----------------------------|
B|---15b--15--14--12--10--15--14--12--10----T---T---T---T----------------------|
G|------------------------------------------------------12--11--9--7-----------|
D|-----------------------------------------------------------------------------|
A|-----------------------------------------------------------------------------|
E|-----------------------------------------------------------------------------|

e|------------------------------------------12b---12--15--17b------------------|
B|-----------------------------------------------------------------------------|
G|--7-5-------9-7-------11-9---------------------------------------------------|
D|--------7-5-------9-7---------11-9-------------------------------------------|
A|-----------------------------------------------------------------------------|
E|-----------------------------------------------------------------------------|

e|---12--15--12b---12--15--17b-------------------------------------------------|
B|---------------------------------------15-13----------17-15------------------|
G|-----------------------------------------------15-13----------17-15----------|
D|-----------------------------------------------------------------------------|
A|-----------------------------------------------------------------------------|
E|-----------------------------------------------------------------------------|

e|---19b---15p13------15p13------15p13-----15p13------------------------------|
B|---------------------15-----------15-----------15----------15---------------|
G|----------------------------------------------------------------------------|
D|----------------------------------------------------------------------------|
A|----------------------------------------------------------------------------|
E|----------------------------------------------------------------------------|

e|----16p14------16p14------16p14-------16p14---------------------------------|
B|--------------14-----------14-----------14------------14--------------------|
G|----------------------------------------------------------------------------|
D|----------------------------------------------------------------------------|
A|----------------------------------------------------------------------------|
E|----------------------------------------------------------------------------|

e|---17p15------17p15------17p15------17p15-----------------------------------|
B|-------------15-----------15-----------15-----------15----------------------|
G|----------------------------------------------------------------------------|
D|----------------------------------------------------------------------------|
A|----------------------------------------------------------------------------|
E|----------------------------------------------------------------------------|


e|---18p16------18p16------18p16--------18p16---------------------------------|
B|-------------16-----------16-----------16--------------16-------------------|
G|----------------------------------------------------------------------------|
D|----------------------------------------------------------------------------|
A|----------------------------------------------------------------------------|
E|----------------------------------------------------------------------------|

e|---18p16------18p16------18p16------18p16-----------------------------------|
B|-------------16-----------16-----------16------------16---------------------|
G|----------------------------------------------------------------------------|
D|----------------------------------------------------------------------------|
A|----------------------------------------------------------------------------|
E|----------------------------------------------------------------------------|


e|---19p17------19p17------19p17------19p17-----------------------------------|
B|-------------17-----------17-----------17-------------17--------------------|
G|----------------------------------------------------------------------------|
D|----------------------------------------------------------------------------|
A|----------------------------------------------------------------------------|
E|----------------------------------------------------------------------------|

e|---20p18------20p18------20p18------20p18-----------------------------------|
B|-------------20-----------20-----------20-------------20--------------------|
G|----------------------------------------------------------------------------|
D|----------------------------------------------------------------------------|
A|----------------------------------------------------------------------------|
E|----------------------------------------------------------------------------|

e|----22b-----------realease-bend-after-chords-start---------------------------|
B|-----------------------------------------------------------------------------|
G|-----------------------------------------------------------------------------|
D|-----------------------------------------------------------------------------|
A|-----------------------------------------------------------------------------|
E|-----------------------------------------------------------------------------|
breakdown
e|--------------------------------3-3-3-X-X---------------------------------|
B|---1-1-1-X-X---1-1-1-X-X--3-3-3-X-X--1-1-1-X-X----------------------------|
G|--2-2-2-X-X---0-0-0-X-X--0-0-0-X-X--2-2-2-X-X-----------------------------|
D|--2-2-2-X-X---2-2-2-X-X--0-0-0-X-X--2-2-2-X-X-----------------------------|           4X
A|-----------------3-3-3-X-X--2-2-2-X-X-------------------------------------|
E|-------------------------------3-3-3-X-X----------------------------------|
Outro
e|-----------------------------------------------------------------------------|
B|----------0h1p0---------------0h1p0-----------------3------------------------|
G|------2-----------2---------0-----------0-----------------0----0-------------|
D|----2---------------------2------------------------------------0-------------|
A|--0---------------------3-------------------------2-2------------------------|
E|-------------------------------------------------3---------------------------|

e|----------------------|       2x
B|-----------0h1p0------|
G|-------2-----------2--|
D|-----2----------------|
A|---0------------------|
E|----------------------|


| /  slide up
| \  slide down
| h  hammer-on
| p  pull-off
| ~  vibrato
| +  harmonic
| x  Mute note
| T tremelo pick
=========================================================

======================
Добавлено: 20.09.2013
Другие материалы по этой песне:
  • Аккорды и текст

Страница создана 20.09.2013
http://primanota.ru/misc-unsigned-bands/devarium-as-time-goes-by-chords.htm
Привет, Гость.
Предлагаем пройти революционный курс по гитаре.
Подарок от PrimaNota.Ru, забирай!