PrimaNota.ru - самый крупный в мире бесплатный архив песенных текстов, аккордов, табулатур и нот


Misc Unsigned Bands - Demonic Forces - Rising Awake - таба

Регистрация Запомнить меня
Войти через:  Facebook Google Twitter Vk Yandex Mail.ru

Misc Unsigned Bands - Demonic Forces - Rising Awake - таба

Печатать
Просмотров: 33
Tuning: C#
        G#
        E
        B
        F#
        B

LEGEND:Palm Muted:---
       Slide:/\
Intro x3


|------------------|
|------------------|
|------------------|
|------------------|
|-5--3--2--1--2--0-|
|-5--3--2--1--2--0-|


Riff 1   x3
|-------------------|     |---------------------------|
|-------------------|     |---------------------------|
|-------------------|     |---------------------------|
|-------------------| x3  |---------------------------|
|----------7-5-7-5--|     |----------7-5-7-5-7/9-7ph--| 
|-000-000--7-5------|     |-000-000--7-5--------------|
  --- ---                   --- ---

Riff 2  x2
|----------------------------------------------|
|----------------------------------------------|
|----------------------------------------------|
|----------------------------------------------|
|----------2---4---------3---5---------4-3-2~--|
|-7/\--0-0-2-0-4-0-0-0-0-3-0-5-0-0-0-0-4-3-2~--|
      - -   -   - - - -   -   - - - -


Riff 3  x6
|-------------------------------------------|
|-------------------------------------------|
|-------------------------------------------|
|-------------------------------------------|
|-----2---4---------3---5---------4-3-2-3ph-|
|-0-0-2-0-4-0-0-0-0-3-0-5-0-0-0-0-4-3-2-----|
  - -   -   - - - -   -   - - - -


Bridge
|----------------------------------------------|
|----------------------------------------------|
|----------------------------------------------|
|-0~~-------2~~-------1~~-------0~~~~----------|
|-0~~-------2~~-------1~~-------0~~~~----------|
|-0~~-0-0-0-2~~-2-2-2-1~~-1-1-1-0~~~~-----7/\--|
      - - -     - - -     - - -


Riff 4  x6
|--------------------------------|
|--------------------------------|
|--------------------------------|
|--------------------------------|
|----7-5-4-5-3ph----2-3-2-4-3ph--|
|-0-0-0-0-0-0----0-0-0-0-0-0-----|
  - - - - - -    - - - - - - 


Riff 5  x3
|-------------------------------------------------------------------------|
|-------------------------------------------------------------------------|
|-------------------------------------------------------------------------|
|-------------------------------------------------------------------------|  
|--7tp---5tp---4tp---5tp---3tp--0~~--2tp---3tp---2tp---4tp---3tp--0~~-----|
|-------------------------------0~~-------------------------------0~~-----|


Breakdown
|----------------------|   |--------------------------------------------|
|----------------------|   |--------------------------------------------|
|----------------------|   |--------------------------------------------|
|----------------------|x2 |--------------------------------------------|
|--5--3--2--1--2--0~~~-|   |-0-0-0-5-7--0-0-0-3-5--0-0-0-2-3--0-0-0-1-2-|
|--5--3--2--1--2--0~~~-|   |-0-0-0-5----0-0-0-3----0-0-0-2----0-0-0-1---|
   -  -  -  -  -             - - -      - - -      - - -      - - -

repeat once but no breakdown second time
Добавлено: 22.11.2013
Другие материалы по этой песне:
  • Аккорды и текст

Страница создана 22.11.2013
http://primanota.ru/misc-unsigned-bands/demonic-forces-rising-awake-chords.htm
Привет, Гость.
Предлагаем пройти революционный курс по гитаре.
Подарок от PrimaNota.Ru, забирай!