PrimaNota.ru - самый крупный в мире бесплатный архив песенных текстов, аккордов, табулатур и нот


Misc Unsigned Bands - Dear Juliet - If The Moon Fell Down Tonight - таба

Регистрация Запомнить меня
Войти через:  Facebook Google Twitter Vk Yandex Mail.ru

Misc Unsigned Bands - Dear Juliet - If The Moon Fell Down Tonight - таба

Печатать
Просмотров: 63
Уроки эстрадного вокала в Санкт-Петербурге
So I tabbed this before, and I tabbed it open.
 Which you can screw around with and make work.

But it is easier to capo 3rd fret and play it like this.


E----------------------------|
B-----1-------1-1----1-------|
G-----0--------0--0---0------|
D-----0h2----------2---------|     twice
A--3-------------------------|
E----------------------------|

E-----------------------------------------------|
B----------1-1------1----------1----1-1-----1---|
G-----------0--0-----0---------0h2---2---2---2--|
D----------------0----0--------3-----------3--3-|
A----0h2----------------------------------------|
E--3-----------------------1--------------------|


E-----------------------|
B---------1-1-----1-----|
G----------0---0---0----|
D---------------0---0---|        all of this twice, the nthe chorus is
A---0h2-----------------|
E-3---------------------|


E--------------------------|
B----11-----00------11-111-|
G----00-----00------22-222-|
D----22-----00------33-333-|
A--3-33-----22------00-000-|
E--------3--33----1--------|

There is your song, Next I am going to do I'm Ready so be on  the look.


myspace.com/tightdenimrules11
Добавлено: 04.09.2013
Другие материалы по этой песне:
  • Аккорды и текст

Страница создана 04.09.2013
http://primanota.ru/misc-unsigned-bands/dear-juliet-if-the-moon-fell-down-tonight-chords.htm
Привет, Гость.
Предлагаем пройти революционный курс по гитаре.
Подарок от PrimaNota.Ru, забирай!