PrimaNota.ru - самый крупный в мире бесплатный архив песенных текстов, аккордов, табулатур и нот


Misc Unsigned Bands - Dear Juliet - Summers Song - таба

Регистрация Запомнить меня
Войти через:  Facebook Google Twitter Vk Yandex Mail.ru

Misc Unsigned Bands - Dear Juliet - Summers Song - таба

Печатать
Просмотров: 52
This is my first tab, but I have my faith that it is quite well.

Dear Juliet is the accoustic project of 17 year old Chase Coy. He has great work, check 
out at myspace.com/dearjuliet

Intro: 0:00-1:05


 you could play it open, but it is more so correct capo on the 3rd fret.
E------------------------------------------------------------|
B---1---3---1---------1---5-3-1-----1---3----1-----1----1--3-|
G------------------------------------------------------------|
D------------------------------------------------------------|
A-3---3---3---3-----3---3---------3---3----3---3---3--3------|
E------------------------------------------------------------|

E-----------------------------------------------|
B---1---3------5----1--3-1---1-----3---3h5p3--1-|
G-----------------------------------------------|
D--2---2----2------2--2--2---2---2-2------------|
A-3---3---3--3----3--3---3---3--3--3------------|
E-----------------------------------------------|
                         ^
                     CHORD
Repeat all three times but last stop on this


For the Chorus just srtum every chord once.
     C                         C7                               C
So please don't forget to call me. Just to let me know you're doing okay,
 C7             C
miles away from me.


Now he throws in a little solo while he records in the intro again. You can do either 
here is the solo.

1:22-1:46

E--------------------------------------------------------------|
B---8-7-5----6-5-3---4-3-1--0---1/3--3/5--5/7--1/3--3/5--5-3-2-|
G--------------------------------------------------------------|
D--------------------------------------------------------------|
A--------------------------------------------------------------|
E--------------------------------------------------------------|


Now he switches back to the intro
for 1:47-2:27

Another chorus from 2:28-2:45

then chorus again from 2:46-3:06 but this time he is strumming the whole thing. listen 
the song for strumming.


then there is a little pause but he goes into this

E-----
B-3--1
G-----     do this 14 times
D-----
A-3--3
E-----


then one more chorus and it is done.
 Any comments bad or good email me at tightdenimrules11@hotmail.com
Добавлено: 16.08.2013
Другие материалы по этой песне:
  • Аккорды и текст

Страница создана 16.08.2013
http://primanota.ru/misc-unsigned-bands/dear-juliet-summers-song-chords.htm
Привет, Гость.
Предлагаем пройти революционный курс по гитаре.
Подарок от PrimaNota.Ru, забирай!