PrimaNota.ru - самый крупный в мире бесплатный архив песенных текстов, аккордов, табулатур и нот


Misc Unsigned Bands - Dear Juliet - Wounded - таба

Регистрация Запомнить меня
Войти через:  Facebook Google Twitter Vk Yandex Mail.ru

Misc Unsigned Bands - Dear Juliet - Wounded - таба

Печатать
Просмотров: 40
       This was one of Chase Coy's earlier songs, it has a small solo recorded in while 
plays chords sort of like Summer's song. This song is not hard at all, it is a good song 
you are going through a break up or some gay thing like that. Well, enjoy.

E-------------------------------|
B-------2------------0----------|
G---4----------2----------------|
D-----4-----------2-------------|         x4
A-2----------0------------------|
E-------------------------------|


     Now, sort of the same thing but faster


E-----------------------------------------------------|
B-------2------------2----------------0-------------0-|
G---4----------4----------------2-------------2-------|
D-----4-----------4-----------------2------------2----|    x3
A-2----------2----------------0-------------0---------|
E-----------------------------------------------------|


4th time he goes

E--------------------------00000-|
B--------2---------2-------00000-|
G---4---------4------------22222-|
D------4---------4---------22222-|
A-2---------2--------------00000-|
E--------------------------------|

E--2---0-------|
B--2---0-------|
G--4---2-------|      Now he plays these two chords for a while but I will not put
D--4---2-------|      up the strumming pattern because I am lazy, while he does this
A--2---0-------|      He puts in the first of like 3 I think solos. first one is
E--------------|

               from 00:32-00:45

E-------------------------------------------------------|
B---15-14-12---10---8-10-11-10-8---8-7-5-4-5-4-3-2-3-4--|
G-------------------------------------------------------|
D-------------------------------------------------------| You figure out the
A-------------------------------------------------------| rythem.
E-------------------------------------------------------|
  Then chords, then this again from 1:16-1:29
  Then he says," Looking back at all those words I sent you." and plays

E-22222---------0------------|
B-22222---------0------------|
G-44444---------2------------| You figure the rythem again.
D-44444----4----2------------|  He does this twice then back to normal strumming with
A-22222--2------0------------|  those two chords, then one more of the same solos from
E----------------  1:59-2:12-|   Then more of those chords then end

                   Any anythings, talk to me at aim=UxcBradyUxc
                                             myspace= myspace.com/tightdenimrules11
                                        email=tightdenimrules11@hotmail.com


                    Any Dear Juliet song requests or any other songs please tell me, I 
being contacted 8D
Добавлено: 23.12.2013
Другие материалы по этой песне:
  • Аккорды и текст

Страница создана 23.12.2013
http://primanota.ru/misc-unsigned-bands/dear-juliet-wounded-chords.htm
Привет, Гость.
Предлагаем пройти революционный курс по гитаре.
Подарок от PrimaNota.Ru, забирай!