PrimaNota.ru - самый крупный в мире бесплатный архив песенных текстов, аккордов, табулатур и нот


Misc Unsigned Bands - Criterion Games - Burnout Paradise Theme - таба

Регистрация Запомнить меня
Войти через:  Facebook Google Twitter Vk Yandex Mail.ru

Misc Unsigned Bands - Criterion Games - Burnout Paradise Theme - таба

Печатать
Просмотров: 63
Уроки эстрадного вокала в Санкт-Петербурге
|-----------Burnout theme:paradise-----------|
By N3XUS
Email:Frederiksbr@gmail.com
Tuning:Standard E A D G h e


Lead:
e-|-------------------------------------------------------------|
h-|-------------------------------------------------------------|
G-|-------------------------------------------------------------|
D-|-------------------------------------------------------------|
A-|-------------------------------------------------------------|
E-|-------------------------------------------------------------|

Rhythm:
e-|-------------------------------------------------------------|
h-|-------------------------------------------------------------|
G-|-------------------------------------------------------------|
D-|-2-2-2-2--2-2-2-2--------------------------------------------|
A-|-2-2-2-2--2-2-2-2--------------------------------------------|
E-|-0-0-0-0--0-0-0-0--0-2-3-2-0---------------------------------|X2

e-|-------------------------------------------------------------|
h-|-------------------------------------------------------------|
G-|-5-5-5-5--5-5-5-5--------------------------------------------|
D-|-5-5-5-5--5-5-5-5--------------------------------------------|
A-|-3-3-3-3--3-3-3-3--------------------------------------------|
E-|-------------------0-2-3-2-0---------------------------------|X2

e-|-------------------------------------------------------------|
h-|-------------------------------------------------------------|
G-|-5-5-5-5--5-5-5-5--------------------------------------------|
D-|-5-5-5-5--5-5-5-5--------------------------------------------|
A-|-7-7-7-7--7-7-7-7--------------------------------------------|
E-|-------------------0-2-3-2-0---------------------------------|x2

e-|-------------------------------------------------------------|
h-|-------------------------------------------------------------|
G-|-------------------------------------------------------------|
D-|-2-2-2-2--2-2-2-2--------------2-2-2-2--2-2-2-2--------------|
A-|-2-2-2-2--2-2-2-2--------------2-2-2-2--2-2-2-2--------------|
E-|-0-0-0-0--0-0-0-0--0-2-3-2-0---0-0-0-0--0-0-0-0--------------|

Lead:
e-|----------------------------------|--------------------------|
h-|----------------------------------|--------------------------|
G-|----------------------------------|--------------------------|
D-|----------------------------------|--------------------------|
A-|--7-----7-----7----7---5--8---5---|--------------------------|
E-|-0-----0-----0--------------------|--------------------------|

e-|-------------------------------------------------------------|
h-|-------------------------------------------------------------|
G-|------------------------9-------7----------------------------|
D-|----------------------------------9--------------------------|
A-|-5--7------7-----7-----------7-------------------------------|
E-|----------0-----0-----0--------------------------------------|

Rhythm:
e-|-------------------------------------------------------------|
h-|-------------------------------------------------------------|
G-|-------------------------------------------------------------|
D-|-2-2-2-2--2-2-2-2--------------------------------------------|
A-|-2-2-2-2--2-2-2-2--------------------------------------------|
E-|-0-0-0-0--0-0-0-0--------------------------------------------|X2

Lead:
e-|----------------------------------|--------------------------|
h-|----------------------------------|--------------------------|
G-|----------------------------------|--------------------------|
D-|----------------------------------|--------------------------|
A-|--7-----7-----7----7---5--8---5---|--------------------------|
E-|-0-----0-----0--------------------|--------------------------|

e-|-------------------------------------------------------------|
h-|-------------------------------------------------------------|
G-|------------------------9-------7----------------------------|
D-|----------------------------------9--------------------------|
A-|-5--7------7-----7-----------7-------------------------------|
E-|----------0-----0-----0--------------------------------------|

Rhythm:
e-|---------------------|---------------------------------------|
h-|---------------------|---------------------------------------|
G-|-5-5-5-5--5-5-5-5----|---------------------------------------|
D-|-5-5-5-5--5-5-5-5----|---------------------------------------|
A-|-3-3-3-3--3-3-3-3-X2-|---------------------------------------|
E-|---------------------|-2-3-2-0-------------------------------|

Lead:
e-|-------------------------------------------------------------|
h-|-------------------------------------------------------------|
G-|--9-----7----------9-----7-----------------------------------|
D-|------------9----------------9-------------------------------|
A-|-7-----7----------7-----7------------------------------------|
E-|-------------------------------------------------------------|X2

Rhythm:
e-|-------------------------------------------------------------|
h-|-------------------------------------------------------------|
G-|-5-5-5-5--5-5-5-5----------------7-7-7-7---------------------|
D-|-5-5-5-5--5-5-5-5----------------7-7-7-7--7-7-7-7------------|
A-|-3-3-3-3--3-3-3-3----------------5-5-5-5--7-7-7-7------------|
E-|-------------------0-2-3-2-0--------------5-5-5-5------------|

Lead:
e-|-------------------------------------------------------------|
h-|-------------------------------------------------------------|
G-|-9----------(9)----------------------------------------------|
D-|-------------------------------------------------------------|
A-|-------------------------------------------------------------|
E-|-------------------------------------------------------------|

Rhythm:
e-|-------------------------------------------------------------|
h-|-------------------------------------------------------------|
G-|-------------------------------------------------------------|
D-|-2-2-2-2--2-2-2-2-----4-4-4-4--5-5-5-5-----------------------|
A-|-2-2-2-2--2-2-2-2-----4-4-4-4--5-5-5-5-----------------------|
E-|-0-0-0-0--0-0-0-0-----2-2-2-2--3-3-3-3-----------------------|

e-|-------------------------------------------------------------|
h-|-------------------------------------------------------------|
G-|-5-5-5-5--5-5-5-5-----4-4-4-4--4-4-4-4-----------------------|
D-|-5-5-5-5--5-5-5-5-----4-4-4-4--4-4-4-4-----------------------|
A-|-3-3-3-3--3-3-3-3-----2-2-2-2--2-2-2-2-----------------------|
E-|-------------------------------------------------------------|

Lead:
e-|-------------------------|-----------------------------------|
h-|-------------------------|-----------------------------------|
G-|-------------------------|-----------------------------------|
D-|-------------------------|-----------------------------------|
A-|----5--7-----5--7-----5-7|----5--7-----5--7-----5-7----------|
E-|-5-7------5-7------5-7---|-5-7------5-7------5-7-------------|

e-|--------------------10---|--------------------12-------------|
h-|--------------------14---|--------------------15-------------|
G-|-9----9----9-----9-------|-9----9----9-----9-----------------|
D-|-------------------------|-----------------------------------|
A-|-------------------------|-----------------------------------|
E-|-------------------------|-----------------------------------|

Rhythm:
e-|-------------------------------------------------------------|
h-|-------------------------------------------------------------|
G-|-----------------------------5-5-5-5--5-5-5-5----------------|
D-|-2-2-2-2--2-2-2-2--2-2-2-2---5-5-5-5--5-5-5-5----------------|
A-|-2-2-2-2--2-2-2-2--2-2-2-2---3-3-3-3--3-3-3-3----------------|
E-|-0-0-0-0--0-0-0-0--0-0-0-0-----------------------------------|

e-|-------------------------------------------------------------|
h-|-------------------------------------------------------------|
G-|-7---7---7-----6---6---6-------------------------------------|
D-|-7---7---7-----6---6---6-------------------------------------|
A-|-5---5---5-----4---4---4-------------------------------------|
E-|-------------------------------------------------------------|


Lead:
e-|-------------------------|-----------------------------------|
h-|-------------------------|----------7------------------------|
G-|-------------------------|----------------7------------------|
D-|-------------------------|-----------------------------------|
A-|----5--7-----5--7-----5-7|----5--7---------------------------|
E-|-5-7------5-7------5-7---|-5-7-------------------------------|

e-|-------------------------------------------------------------|
h-|-------------------------------------------------------------|
G-|-9---7---9-----9---7---9-------------------------------------|
D-|-9---7---9-----9---7---9-------------------------------------|
A-|-7---5---7-----7---5---7-------------------------------------|
E-|-------------------------------------------------------------|

Rhythm:
e-|-------------------------------------------------------------|
h-|-------------------------------------------------------------|
G-|-5---5---5-----7---7---7-----9---7---9-----9---7---9---------|
D-|-5---5---5-----7---7---7-----9---7---9-----9---7---9---------|
A-|-3---3---3-----5---5---5-----7---5---7-----7---5---7---------|
E-|-------------------------------------------------------------|

Lead:
e-|----------------------------------|--------------------------|
h-|----------------------------------|--------------------------|
G-|----------------------------------|--------------------------|
D-|----------------------------------|--------------------------|
A-|--7-----7-----7----7---5--8---5---|--------------------------|
E-|-0-----0-----0--------------------|--------------------------|

e-|-------------------------------------------------------------|
h-|-------------------------------------------------------------|
G-|------------------------9-------7----------------------------|
D-|----------------------------------9--------------------------|
A-|-5--7------7-----7-----------7-------------------------------|
E-|----------0-----0-----0--------------------------------------|X2

Rhythm:
e-|-------------------------------------------------------------|
h-|-------------------------------------------------------------|
G-|-------------------------------------------------------------|
D-|-2-2-2-2--2-2-2-2-----2-2-2-2--2-2-2-2-----------------------|
A-|-2-2-2-2--2-2-2-2-----2-2-2-2--2-2-2-2-----------------------|
E-|-0-0-0-0--0-0-0-0-----0-0-0-0--0-0-0-0-----------------------|

e-|-------------------------------------------------------------|
h-|-------------------------------------------------------------|
G-|-5-5-5-5--5-5-5-5-----5-5-5-5--5-5-5-5-----------------------|
D-|-5-5-5-5--5-5-5-5-----5-5-5-5--5-5-5-5-----------------------|
A-|-3-3-3-3--3-3-3-3-----3-3-3-3--3-3-3-3-----------------------|
E-|----------------------------------------2-3-2-0--------------|

Lead:
e-|--------------------------------|----------------------------|
h-|--------------------------------|----------------------------|
G-|--9-----7----------9-----7------|----------------------------|
D-|------------9----------------9--|----------------------------|
A-|-7-----7----------7-----7-------|----------------------------|
E-|--------------------------------|----------------------------|X4

Rhythm:
e-|-------------------------------------------------------------|
h-|-------------------------------------------------------------|
G-|-7-7-7-7--7-7-7-7---------------4-4-4-4--4-4-4-4-------------|
D-|-7-7-7-7--7-7-7-7---------------4-4-4-4--4-4-4-4-------------|
A-|-5-5-5-5--5-5-5-5---------------2-2-2-2--2-2-2-2-------------|
E-|-------------------0-2-3-2-0----------------------0-2-3-2-0--|

e-|-------------------------------------------------------------|
h-|-------------------------------------------------------------|
G-|-5-5-5-5--5-5-5-5---------------7-7-7-7----------------------|
D-|-5-5-5-5--5-5-5-5---------------7-7-7-7--7-7-7-7-------------|
A-|-3-3-3-3--3-3-3-3---------------5-5-5-5--7-7-7-7-------------|
E-|-------------------0-2-3-2-0-------------5-5-5-5-------------|

Lead:
e-|-------------------------------------------------------------|
h-|-------------------------------------------------------------|
G-|-9----------(9)----------------------------------------------|
D-|-------------------------------------------------------------|
A-|-------------------------------------------------------------|
E-|-------------------------------------------------------------|

Rhythm:
e-|-------------------------------------------------------------|
h-|-------------------------------------------------------------|
G-|-------------------------------------------------------------|
D-|-2-2-2-2--2-2-2-2--------------------------------------------|
A-|-2-2-2-2--2-2-2-2--------------------------------------------|
E-|-0-0-0-0--0-0-0-0--------------------------------------------|X2

Lead:
e-|-------------------------|-----------------------------------|
h-|-------------------------|-----------------------------------|
G-|-------------------------|-----------------------------------|
D-|-------------------------|-----------------------------------|
A-|----5--7-----5--7-----5-7|----5--7-----5--7-----5-7----------|
E-|-5-7------5-7------5-7---|-5-7------5-7------5-7-------------|

e-|--------------------10---|--------------------12-------------|
h-|--------------------14---|--------------------15-------------|
G-|-9----9----9-----9-------|-9----9----9-----9-----------------|
D-|-------------------------|-----------------------------------|
A-|-------------------------|-----------------------------------|

Rhythm:
e-|-------------------------------------------------------------|
h-|-------------------------------------------------------------|
G-|----------------------------5-5-5-5--5-5-5-5--5-5-5-5--------|
D-|-2-2-2-2--2-2-2-2--2-2-2-2--5-5-5-5--5-5-5-5--5-5-5-5--------|
A-|-2-2-2-2--2-2-2-2--2-2-2-2--3-3-3-3--3-3-3-3--3-3-3-3--------|
E-|-0-0-0-0--0-0-0-0--0-0-0-0-----------------------------------|

e-|-------------------------------------------------------------|
h-|-------------------------------------------------------------|
G-|-7---7---7-----6---6---6-------------------------------------|
D-|-7---7---7-----6---6---6-------------------------------------|
A-|-5---5---5-----4---4---4-------------------------------------|
E-|-------------------------------------------------------------|

Lead:
e-|-------------------------|-----------------------------------|
h-|-------------------------|----------7------------------------|
G-|-------------------------|----------------7------------------|
D-|-------------------------|-----------------------------------|
A-|----5--7-----5--7-----5-7|----5--7---------------------------|
E-|-5-7------5-7------5-7---|-5-7-------------------------------|

e-|-------------------------------------------------------------|
h-|-------------------------------------------------------------|
G-|-9---7---9-----9---7---9-------------------------------------|
D-|-9---7---9-----9---7---9-------------------------------------|
A-|-7---5---7-----7---5---7-------------------------------------|
E-|-------------------------------------------------------------|

Rhythm:
e-|-------------------------------------------------------------|
h-|-------------------------------------------------------------|
G-|-5---5---5-----7---7---7-----9---7---9-----9---7---9---------|
D-|-5---5---5-----7---7---7-----9---7---9-----9---7---9---------|
A-|-3---3---3-----5---5---5-----7---5---7-----7---5---7---------|
E-|-------------------------------------------------------------|

Lead:
e-|----------------------------------|--------------------------|
h-|----------------------------------|--------------------------|
G-|----------------------------------|--------------------------|
D-|----------------------------------|--------------------------|
A-|--7-----7-----7----7---5--8---5---|--------------------------|
E-|-0-----0-----0--------------------|--------------------------|

e-|-------------------------------------------------------------|
h-|-------------------------------------------------------------|
G-|------------------------9-------7----------------------------|
D-|----------------------------------9--------------------------|
A-|-5--7------7-----7-----------7-------------------------------|
E-|----------0-----0-----0--------------------------------------|X2

Rhythm:
e-|-------------------------------------------------------------|
h-|-------------------------------------------------------------|
G-|-------------------------------------------------------------|
D-|-2-2-2-2--2-2-2-2-----2-2-2-2--2-2-2-2-----------------------|
A-|-2-2-2-2--2-2-2-2-----2-2-2-2--2-2-2-2-----------------------|
E-|-0-0-0-0--0-0-0-0-----0-0-0-0--0-0-0-0-----------------------|

e-|-------------------------------------------------------------|
h-|-------------------------------------------------------------|
G-|-5-5-5-5--5-5-5-5-----5-5-5-5--5-5-5-5-----------------------|
D-|-5-5-5-5--5-5-5-5-----5-5-5-5--5-5-5-5-----------------------|
A-|-3-3-3-3--3-3-3-3-----3-3-3-3--3-3-3-3-----------------------|
E-|----------------------------------------2-3-2-0--------------|

Lead:
e-|--------------------------------|----------------------------|
h-|--------------------------------|----------------------------|
G-|--9-----7----------9-----7------|----------------------------|
D-|------------9----------------9--|----------------------------|
A-|-7-----7----------7-----7-------|----------------------------|
E-|--------------------------------|----------------------------|X4

Rhythm:
e-|-------------------------------------------------------------|
h-|-------------------------------------------------------------|
G-|-5-5-5-5--5-5-5-5-------------4-4-4-4--4-4-4-4---------------|
D-|-5-5-5-5--5-5-5-5-------------4-4-4-4--4-4-4-4---------------|
A-|-7-7-7-7--7-7-7-7-------------2-2-2-2--2-2-2-2---------------|
E-|-------------------0-2-3-2-0--------------------0-2-3-2-0----|

e-|-------------------------------------------------------------|
h-|-------------------------------------------------------------|
G-|-5-5-5-5--5-5-5-5-------------7-7-7-7------------------------|
D-|-5-5-5-5--5-5-5-5-------------7-7-7-7--7-7-7-7---------------|
A-|-3-3-3-3--3-3-3-3-------------5-5-5-5--7-7-7-7---------------|
E-|-------------------0-2-3-2-0-----------5-5-5-5---------------|

Lead:
e-|-------------------------------------------------------------|
h-|-------------------------------------------------------------|
G-|-9----------(9)----------------------------------------------|
D-|-------------------------------------------------------------|
A-|-------------------------------------------------------------|
E-|-------------------------------------------------------------|

Rhythm:
e-|-------------------------------------------------------------|
h-|-------------------------------------------------------------|
G-|-------------------------------------------------------------|
D-|-2-2-2-2--2-2-2-2-----2-2-2-2--2-2-2-2-----------------------|
A-|-2-2-2-2--2-2-2-2-----2-2-2-2--2-2-2-2-----------------------|
E-|-0-0-0-0--0-0-0-0-----0-0-0-0--0-0-0-0-----------------------|

Lead:
e-|-------------------------|-----------------------------------|
h-|-------------------------|-----------------------------------|
G-|-------------------------|-----------------------------------|
D-|-------------------------|-----------------------------------|
A-|----5--7-----5--7-----5-7|----5--7-----5--7-----5-7----------|
E-|-5-7------5-7------5-7---|-5-7------5-7------5-7-------------|

e-|--------------------10---|--------------------12-------------|
h-|--------------------14---|--------------------15-------------|
G-|-9----9----9-----9-------|-9----9----9-----9-----------------|
D-|-------------------------|-----------------------------------|
A-|-------------------------|-----------------------------------|

Rhythm:
e-|-------------------------------------------------------------|
h-|-------------------------------------------------------------|
G-|----------------------------5-5-5-5--5-5-5-5--5-5-5-5--------|
D-|-2-2-2-2--2-2-2-2--2-2-2-2--5-5-5-5--5-5-5-5--5-5-5-5--------|
A-|-2-2-2-2--2-2-2-2--2-2-2-2--3-3-3-3--3-3-3-3--3-3-3-3--------|
E-|-0-0-0-0--0-0-0-0--0-0-0-0-----------------------------------|

e-|-------------------------------------------------------------|
h-|-------------------------------------------------------------|
G-|-7---7---7-----6---6---6-------------------------------------|
D-|-7---7---7-----6---6---6-------------------------------------|
A-|-5---5---5-----4---4---4-------------------------------------|
E-|-------------------------------------------------------------|

Lead:
e-|-------------------------|-----------------------------------|
h-|-------------------------|----------7------------------------|
G-|-------------------------|----------------7----9---7---9-----|
D-|-------------------------|---------------------9---7---9-----|
A-|----5--7-----5--7-----5-7|----5--7-------------7---5---7-----|
E-|-5-7------5-7------5-7---|-5-7-------------------------------|

Rhythm:
e-|-------------------------------------------------------------|
h-|-------------------------------------------------------------|
G-|-5---5---5-----7---7---7-----9---7---9-----------------------|
D-|-5---5---5-----7---7---7-----9---7---9-----------------------|
A-|-3---3---3-----5---5---5-----7---5---7-----------------------|
E-|-------------------------------------------------------------|

Lead:
e-|--0-----0-----0-----0-----0-----0----------------------------|
h-|---1-----1-----1-----1-----1-----1---------------------------|
G-|-------------------------------------------------------------|
D-|-------------------------------------------------------------|
A-|-------------------------------------------------------------|
E-|-------------------------------------------------------------|

Rhythm:
e-|-------------------------------------------------------------|
h-|-------------------------------------------------------------|
G-|-------------------------------------------------------------|
D-|-------------------------------------------------------------|
A-|-------------------------------------------------------------|
E-|-------------------------------------------------------------|

Lead:
e-|-0-----0-----0-----0-----0-----0-----------------------------|
h-|----0-----0-----0-----0-----0--------------------------------|
G-|-----------------------------------4-------------------------|
D-|-------------------------------------------------------------|
A-|-------------------------------------------------------------|
E-|-------------------------------------------------------------|

Rhythm:
e-|-------------------------------------------------------------|
h-|-------------------------------------------------------------|
G-|-------------------------------------------------------------|
D-|-------------------------------------------------------------|
A-|-------------------------------------------------------------|
E-|-------------------------------------------------------------|

Lead:
e-|---------0-------------------3------------------2------------|
h-|-------------------------------------------------------------|
G-|----------------------4--------------------------------------|
D-|-------------------------------------------------------------|
A-|-------------------------------------------------------------|
E-|-------------------------------------------------------------|

Rhythm:
e-|-------------------------------------------------------------|
h-|-------------------------------------------------------------|
G-|-------------------------------------------------------------|
D-|-------------------------------------------------------------|
A-|-------------------------------------------------------------|
E-|-------------------------------------------------------------|

Lead:
e-|---------0---------------------------------------------------|
h-|---------------------3-----------(3)--5----------------------|
G-|-------------------------------------------------------------|
D-|-------------------------------------------------------------|
A-|-------------------------------------------------------------|
E-|-------------------------------------------------------------|

Rhythm:
e-|-------------------------------------------------------------|
h-|-------------------------------------------------------------|
G-|-------------------------------------------------------------|
D-|-------------------------------------------------------------|
A-|-------------------------------------------------------------|
E-|-------------------------------------------------------------|

Lead:
e-|-------------------------|-----------------------------------|
h-|-------------------------|-----------------------------------|
G-|-------------------------|-----------------------------------|
D-|-------------------------|-----------------------------------|
A-|----5--7-----5--7-----5-7|----5--7-----5--7-----5-7----------|
E-|-5-7------5-7------5-7---|-5-7------5-7------5-7-------------|

e-|--------------------10---|--------------------12-------------|
h-|--------------------14---|--------------------15-------------|
G-|-9----9----9-----9-------|-9----9----9-----9-----------------|
D-|-------------------------|-----------------------------------|
A-|-------------------------|-----------------------------------|

Rhythm:
e-|-------------------------------------------------------------|
h-|-------------------------------------------------------------|
G-|----------------------------5-5-5-5--5-5-5-5--5-5-5-5--------|
D-|-2-2-2-2--2-2-2-2--2-2-2-2--5-5-5-5--5-5-5-5--5-5-5-5--------|
A-|-2-2-2-2--2-2-2-2--2-2-2-2--3-3-3-3--3-3-3-3--3-3-3-3--------|
E-|-0-0-0-0--0-0-0-0--0-0-0-0-----------------------------------|

e-|-------------------------------------------------------------|
h-|-------------------------------------------------------------|
G-|-7---7---7-----6---6---6-------------------------------------|
D-|-7---7---7-----6---6---6-------------------------------------|
A-|-5---5---5-----4---4---4-------------------------------------|
E-|-------------------------------------------------------------|

Lead:
e-|-------------------------|-----------------------------------|
h-|-------------------------|----------7------------------------|
G-|-------------------------|----------------7------------------|
D-|-------------------------|-----------------------------------|
A-|----5--7-----5--7-----5-7|----5--7---------------------------|
E-|-5-7------5-7------5-7---|-5-7-------------------------------|

e-|-------------------------------------------------------------|
h-|-------------------------------------------------------------|
G-|-9---x-7---x-9---------------9---x-7---x-9-------------------|
D-|-9---x-7---x-9---------------9---x-7---x-9-------------------|
A-|-7---x-5---x-7------5-7------7---x-5---x-7-------------------|
E-|-----------------5-7---5-7-----------------------------------|

Rhythm:
e-|-------------------------------------------------------------|
h-|-------------------------------------------------------------|
G-|-5---5---5-----7---7---7-----9---7---9-----9---7---9---------|
D-|-5---5---5-----7---7---7-----9---7---9-----9---7---9---------|
A-|-3---3---3-----5---5---5-----7---5---7-----7---5---7---------|
E-|-------------------------------------------------------------|

Lead:
e-|-------------------------------------------------------------|
h-|-------------------------------------------------------------|
G-|-5-5-5-5-5-5-5-5-5-5-5-5-5-5-5-5-----------------------------|
D-|-4-4-4-4-4-4-4-4-4-4-4-4-4-4-4-4-----------------------------|
A-|-------------------------------------------------------------|
E-|-------------------------------------------------------------|

e-|-------------------------------------------------------------|
h-|-------------------------------------------------------------|
G-|-7-7-7-7-7-7-7-7-7-7-7-7-7-7-7-7-----------------------------|
D-|-6-6-6-6-6-6-6-6-6-6-6-6-6-6-6-6-----------------------------|
A-|-------------------------------------------------------------|
E-|-------------------------------------------------------------|

e-|-------------------------------------------------------------|
h-|-------------------------------------------------------------|
G-|-8-8-8-8-8-8-8-8-8-8-8-8-8-8-8-8-----------------------------|
D-|-7-7-7-7-7-7-7-7-7-7-7-7-7-7-7-7-----------------------------|
A-|-------------------------------------------------------------|
E-|-------------------------------------------------------------|

Rhythm.
e-|-------------------------------------------------------------|
h-|-------------------------------------------------------------|
G-|-------------------------------------------------------------|
D-|-2-2-2-2--2-2-2-2-----2-2-2-2--2-2-2-2-----2-2-2-2--2-2-2-2--|
A-|-2-2-2-2--2-2-2-2-----2-2-2-2--2-2-2-2-----2-2-2-2--2-2-2-2--|
E-|-0-0-0-0--0-0-0-0-----0-0-0-0--0-0-0-0-----0-0-0-0--0-0-0-0--|

Lead:
e-|-------------------------------------------------------------|
h-|-10-10-10-10-10-10-10-10-10-10-10-10-10-10-10----------------|
G-|-9--9--9--9--9--9--9--9--9--9--9--9--9--9--9-----------------|
D-|-------------------------------------------------------------|
A-|-------------------------------------------------------------|
E-|-------------------------------------------------------------|

e-|-7-7-7-7-7-7-7-7-7-7-7-7-7-7-7-------------------------------|
h-|-5-5-5-5-5-5-5-5-5-5-5-5-5-5-5-------------------------------|
G-|-------------------------------------------------------------|
D-|-------------------------------------------------------------|
A-|-------------------------------------------------------------|
E-|-------------------------------------------------------------|

e-|-9-9-9-9-9-9-9-9-9-9-9-9-9-9-9-------------------------------|
h-|-7-7-7-7-7-7-7-7-7-7-7-7-7-7-7-------------------------------|
G-|-------------------------------------------------------------|
D-|-------------------------------------------------------------|
A-|-------------------------------------------------------------|
E-|-------------------------------------------------------------|

Rhythm:
e-|-------------------------------------------------------------|
h-|-------------------------------------------------------------|
G-|-------------------------------------------------------------|
D-|-2-2-2-2--2-2-2-2-----2-2-2-2--2-2-2-2-----2-2-2-2--2-2-2-2--|
A-|-2-2-2-2--2-2-2-2-----2-2-2-2--2-2-2-2-----2-2-2-2--2-2-2-2--|
E-|-0-0-0-0--0-0-0-0-----0-0-0-0--0-0-0-0-----0-0-0-0--0-0-0-0--|

Lead:
e-|-10-10-10-10-------------------------------------------------|
h-|-8--8--8--8-----7--------------------------------------------|
G-|---------------------------------7---------------------------|
D-|-------------------------------------------------------------|
A-|-------------------------------------------------------------|
E-|-------------------------------------------------------------|

e-|-------------------------------------------------------------|
h-|-------------------------------------------------------------|
G-|-9---7---8---(9)---------------------------------------------|
D-|-9---7---8---(9)---------------------------------------------|
A-|-7---5---7---(7)---------------------------------------------|
E-|-------------------------------------------------------------|

Rhythm:
e-|-------------------------------------------------------------|
h-|-------------------------------------------------------------|
G-|-------------------------------------------------------------|
D-|-2-2-2-2--2-2-2-2-----2-2-2-2--2-2-2-2-----------------------|
A-|-2-2-2-2--2-2-2-2-----2-2-2-2--2-2-2-2-----------------------|
E-|-0-0-0-0--0-0-0-0-----0-0-0-0--0-0-0-0-----------------------|
Добавлено: 12.12.2013
Другие материалы по этой песне:
  • Аккорды и текст

Страница создана 12.12.2013
http://primanota.ru/misc-unsigned-bands/criterion-games-burnout-paradise-theme-chords.htm
Привет, Гость.
Предлагаем пройти революционный курс по гитаре.
Подарок от PrimaNota.Ru, забирай!