PrimaNota.ru - самый крупный в мире бесплатный архив песенных текстов, аккордов, табулатур и нот


Misc Unsigned Bands - Credence - March Around The Walls - бас-таба

Регистрация Запомнить меня
Войти через:  Facebook Google Twitter Vk Yandex Mail.ru

Misc Unsigned Bands - Credence - March Around The Walls - бас-таба

Печатать
Просмотров: 42
Intro
E--------------------------------------------|
B--------------------------------------------|7x
F#-------------------------------------------|
B-0--0-0-0-0-0--0-0-0-0-0-0--0-0-0-0-3-2-5-4-|

E----------------------------------------------------|
B----------------------------------------------------|
F#---------------------------------------------------|
B-0--0-0-0-0-0--0-0-0-0-0-0--0-0-0-0-3-2-5-3-8-5-7-3-|
Headbanging part
E----------------------------------------------------------------------|
B----------------------------------------------------------------------|2x
F#-------------------------------------------------------------------4-|
B-0-0-0-0-0-0-0-0-0-0-0-0-0-0-0-0-6-6-6-6-6-6-6-6-3-3-3-3-3-3-3-3-2h3--|
Tremlo everything except the hammer on & the 4
E--------------------|
B--------7-6---------|
F#-5-7-8-----8-7h8-4-|
B--------------------|
Southern part
E----------------------------------------------|
B----------------------------------------------|2x
F#-----------------------------------5-3---3-0-|
B-0-2-3-0-3-6-5-3-5-3-2--0-2-3-0-3-6-----0-----|
2-step Go to the rhythm of the bass drum.
E---------------------------------------------|
B---------------------------------------------|
F#--------------------------------------------|
B-0-0-0-0-0-0-0-0-0-0-0-0-8-8-8-8-10-10-10-10-|
Breakdown
E----------------------------------------------|
B----------------------------------------------|
F#---------------------------------------------|
B-0-0-0-0-0-0--0-0-0-0--0-0-0-0-0-0--3-2-0-5-3-|
Headbanging part ll. Hit notes onece first time/second & third time time play to the 
drum/Last two times tremlo
E-----------|
B-----------|
F#----------|
B-12-7-10-8-|
Breakdown again. Third & fourth time switch off with the guitar on the four opens. Bass 
first & third open.
Добавлено: 20.10.2013
Другие материалы по этой песне:
  • Аккорды и текст

Страница создана 20.10.2013
http://primanota.ru/misc-unsigned-bands/credence-march-around-the-walls-chords.htm
Привет, Гость.
Предлагаем пройти революционный курс по гитаре.
Подарок от PrimaNota.Ru, забирай!