PrimaNota.ru - самый крупный в мире бесплатный архив песенных текстов, аккордов, табулатур и нот


Misc Unsigned Bands - Dagon - Antichrist - таба, бас-таба

Регистрация Запомнить меня
Войти через:  Facebook Google Twitter Vk Yandex Mail.ru

Misc Unsigned Bands - Dagon - Antichrist - таба, бас-таба

Печатать
Просмотров: 40
 Band - Dagon                                     P - Pulloff
 Song - Antichrist                               Pb - Pitchbend
Album - Beast Within                             Fb - Fullbend
                                                 Hb - Halfbend
                                                  X - Palm mute
                                                  / - Slide too..
                                                  H - Hammer on
INTRO
e---------------------------------------------------------------------------|
b---------------------------------------------------------------------------|
g---------------------------------------------------------------------------|
d-------------------------------------3-2Hb---------------------------------|
a-000000000000--3-2Hb---000000000000----------000000000000--3-2Hb-----------|
d-000000000000----------000000000000----------000000000000------------------|
  xxxxxxxxxxxx          xxxxxxxxxxxx          xxxxxxxxxxxx


e---------------------------------------------------------------------------|
b---------------------------------------------------------------------------|
g---------------------------------------------------------------------------|
d----32--------32----32----32-----------------------------------------------|
a-00----00--32----32----32-----0-0------------------------------------------|
d-00----00---------------------0-0------------------------------------------|
  xx    xx                     x x

Riff 1
e-----------------------------------------------------------------------|
b-----------------------------------------------------------------------|
g-----------------------------------------------------------------------| x2
d------------------------------------------------------3Pb--------------|
a-00-1-000-1-0001-000--3Pb---00-1-000-1-0001-000--2/3-4-----------------|
d-00-1-000-1-0001-000--------00-1-000-1-0001-000------------------------|
  xx   xxx   xxx  xxx        xx   xxx   xxx  xxx

Riff 2   "vocals"
e-----------------------------------------------------------------------|
b-----------------------------------------------------------------------|
g-----------------------------------------------------------------------| x3
d-----------------------------------------------------------------------|
a-7777-555-3333333333-0000---7777-555-3333333333-0000-------------------|
d-7777-555-3333333333-0000---7777-555-3333333333-0000-------------------|


Riff 1
e-----------------------------------------------------------------------|
b-----------------------------------------------------------------------|
g-----------------------------------------------------------------------| x2
d------------------------------------------------------3Pb--------------|
a-00-1-000-1-0001-000--3Pb---00-1-000-1-0001-000--2/3-4-----------------|
d-00-1-000-1-0001-000--------00-1-000-1-0001-000------------------------|
  xx   xxx   xxx  xxx        xx   xxx   xxx  xxx

Riff 2   "vocals"
e-----------------------------------------------------------------------|
b-----------------------------------------------------------------------|
g-----------------------------------------------------------------------| x3
d-----------------------------------------------------------------------|
a-7777-555-3333333333-0000---7777-555-3333333333-0000-------------------|
d-7777-555-3333333333-0000---7777-555-3333333333-0000-------------------|


Riff 1
e-----------------------------------------------------------------------|
b-----------------------------------------------------------------------|
g-----------------------------------------------------------------------| x2
d------------------------------------------------------3Pb--------------|
a-00-1-000-1-0001-000--3Pb---00-1-000-1-0001-000--2/3-4-----------------|
d-00-1-000-1-0001-000--------00-1-000-1-0001-000------------------------|
  xx   xxx   xxx  xxx        xx   xxx   xxx  xxx

Guitar Solo
e-8p-5-8p-5-8p-5-8p-5----10p-7-10p-7--------10--10--------------------------|
b-----5----5----5----5--------7-----7--10/12--12--10--------------13-12-----|
g---------------------------------------------------11-10-12/13-12----------|
d---------------------------------------------------------------------------|
a---------------------------------------------------------------------------|
d---------------------------------------------------------------------------|


e---12-12-14-12-15-12-14Fb-12-15-12-14-12-15-----12-14-12-15----------------|
b---------------------------------------------------------------------------|
g---------------------------------------------------------------------------|
d---------------------------------------------------------------------------|
a---------------------------------------------------------------------------|
d---------------------------------------------------------------------------|


e---------------------------------------------------------------------------|
b---12-12-14-12-15-12-14-12-15-12-14-12-15----------------------------------|
g---------------------------------------------------------------------------|
d---------------------------------------------------------------------------|
a---------------------------------------------------------------------------|
d---------------------------------------------------------------------------|


e---------------------------------------------------------------------------|
b---------------------------------------------------------------------------|
g---12-12-14-12-15-12-14-12-15-12-14-12-15----------------------------------|
d---------------------------------------------------------------------------|
a---------------------------------------------------------------------------|
d---------------------------------------------------------------------------|


e-----------------16Hb-15H-16-----------------------------------------------|
b-----------16-15-------------16-15-----------------------------------------|
g--15/16-15------------------------16-15Hb----------------------------------|
d---------------------------------------------------------------------------|
a---------------------------------------------------------------------------|
d---------------------------------------------------------------------------|


e--------------17-18Hb-17H-18-----------------------------------------------|
b-----------18---------------18-17------------------------------------------|
g--17/18-17-----------------------18-17Fb-----------------------------------|
d---------------------------------------------------------------------------|
a---------------------------------------------------------------------------|
d---------------------------------------------------------------------------|


3rd Riff  "vocals"
e-----------------------------------------------------------------------|
b-----------------------------------------------------------------------|
g-----------------------------------------------------------------------| x3
d-----------------------------------------------------------------------|
a-01-001-00-3Hb--001-00-5Hb--001-00-3-----------------------------------|
d-01-001-00------001-00------001-00-3-----------------------------------|


OUTRO
e-----------------------------------------------------------------------|
b-----------------------------------------------------------------------|
g-----------------------------------------------------------------------| x2
d------------------------------------------------------3Pb--------------|
a-00-1-000-1-0001-000--3Pb---00-1-000-1-0001-000--2/3-4-----------------|
d-00-1-000-1-0001-000--------00-1-000-1-0001-000------------------------|
  xx   xxx   xxx  xxx        xx   xxx   xxx  xxx
Добавлено: 10.02.2014
Другие материалы по этой песне:
  • Аккорды и текст

Страница создана 05.02.2014
http://primanota.ru/misc-unsigned-bands/dagon-antichrist-chords.htm
Привет, Гость.
Предлагаем пройти революционный курс по гитаре.
Подарок от PrimaNota.Ru, забирай!