PrimaNota.ru - самый крупный в мире бесплатный архив песенных текстов, аккордов, табулатур и нот


Misc Unsigned Bands - Cherry Falls - Standing Watching - таба, видео

Регистрация Запомнить меня
Войти через:  Facebook Google Twitter Vk Yandex Mail.ru

Misc Unsigned Bands - Cherry Falls - Standing Watching - таба, видео

Печатать
Просмотров: 31
----------------------------------------------------------------------------
                       STANDING WATCHING - Cherry Falls
----------------------------------------------------------------------------
Tabbed by: Chris Colyer
Tuning: Standard

Intro (2 Guitars)

Lead
e|-----6-------------6-------------6-------------6--------------------|
B|-x-x---x-x-6-6-x-x---x-x-6-6-x-x---x-x-6-6-x-x---x-x-6-6------------|
G|-x-x---x-x-----x-x---x-x-----x-x---x-x-----x-x---x-x----------------|
D|-x-x---x-x-----x-x---x-x-----x-x---x-x-----x-x---x-x----------------|
A|--------------------------------------------------------------------|
E|--------------------------------------------------------------------|
Rhythym
e|--------------------------------------------------------------------|
B|--------------------------------------------------------------------|
G|-7-7-x-x-7-7-7-x-7-7-7-x-7-7-7-7-7-7-7-x-x-7-7-7-x-7-7-7-x-7-7-7-7-7|
D|-8-8-x-x-8-8-8-x-8-8-8-x-8-8-8-8-8-8-8-x-x-8-8-8-x-8-8-8-x-8-8-8-8-8|
A|-8-8-x-x-8-8-8-x-8-8-8-x-8-8-8-8-8-8-8-x-x-8-8-8-x-8-8-8-x-8-8-8-8-8|
E|-6-6-x-x-6-6-6-x-6-6-6-x-6-6-6-6-6-6-6-x-x-6-6-6-x-6-6-6-x-6-6-6-6-6|

Lead
e|----/6-----6-8-----6-------------6----------------------------------|
B|-x-x---x-x-----x-x---x-x-6-6-x-x---x-x-6-4-3-1--1-1-1---------------|
G|-x-x---x-x-----x-x---x-x-----x-x---x-x------------------------------|
D|-x-x---x-x-----x-x---x-x-----x-x---x-x------------------------------|
A|--------------------------------------------------------------------|
E|--------------------------------------------------------------------|
Rhythym
e|--------------------------------------------------------------------|
B|--------------------------------------------------------------------|
G|---------------------------------7-7-x-x-7-7-7-x-7-7-7-x-7-7-7-7-7--|
D|-5-5-5-5-5-5-5-5-7-7-7-7-7-7-7-7-8-8-x-x-8-8-8-x-8-8-8-x-8-8-8-8-8--|
A|-5-5-5-5-5-5-5-5-7-7-7-7-7-7-7-7-8-8-x-x-8-8-8-x-8-8-8-x-8-8-8-8-8--|
E|-3-3-3-3-3-3-3-3-5-5-5-5-5-5-5-5-6-6-x-x-6-6-6-x-6-6-6-x-6-6-6-6-6--|

Verse 1 (2 Guitars)

Lead
e|-----6-------------6-------------6-------------6--------------------|
B|-x-x---x-x-6-6-x-x---x-x-6-6-x-x---x-x-6-6-x-x---x-x-6-6------------|
G|-x-x---x-x-----x-x---x-x-----x-x---x-x-----x-x---x-x----------------|
D|-x-x---x-x-----x-x---x-x-----x-x---x-x-----x-x---x-x----------------|
A|--------------------------------------------------------------------|
E|--------------------------------------------------------------------|
Rhythym
e|--------------------------------------------------------------------|
B|--------------------------------------------------------------------|
G|-7-7-x-x-7-7-7-x-7-7-7-x-7-7-7-7-7-7-7-x-x-7-7-7-x-7-7-7-x-7-7-7-7-7|
D|-8-8-x-x-8-8-8-x-8-8-8-x-8-8-8-8-8-8-8-x-x-8-8-8-x-8-8-8-x-8-8-8-8-8|
A|-8-8-x-x-8-8-8-x-8-8-8-x-8-8-8-8-8-8-8-x-x-8-8-8-x-8-8-8-x-8-8-8-8-8|
E|-6-6-x-x-6-6-6-x-6-6-6-x-6-6-6-6-6-6-6-x-x-6-6-6-x-6-6-6-x-6-6-6-6-6|

Lead
e|----/6-----6-8-----6-------------6------------6---------------------|
B|-x-x---x-x-----x-x---x-x-6-6-x-x---x-x-6-4-x----6-6-6-6-6-----------|
G|-x-x---x-x-----x-x---x-x-----x-x---x-x-----x------------------------|
D|-x-x---x-x-----x-x---x-x-----x-x---x-x-----x------------------------|
A|--------------------------------------------------------------------|
E|--------------------------------------------------------------------|
Rythym
e|--------------------------------------------------------------------|
B|--------------------------------------------------------------------|
G|---------------------------------7-7-x-x-7-7-7-x-7-7-7-x-7-7-7-7-7--|
D|-5-5-5-5-5-5-5-5-7-7-7-7-7-7-7-7-8-8-x-x-8-8-8-x-8-8-8-x-8-8-8-8-8--|
A|-5-5-5-5-5-5-5-5-7-7-7-7-7-7-7-7-8-8-x-x-8-8-8-x-8-8-8-x-8-8-8-8-8--|
E|-3-3-3-3-3-3-3-3-5-5-5-5-5-5-5-5-6-6-x-x-6-6-6-x-6-6-6-x-6-6-6-6-6--|

Repeat Verse 1

Chorus

e|-5-5-5-5-5-5-5-5-6-6-6-6-6-6-6-6-6---------------------------------------|
B|-----------------------------------6-6-6-6-6-6-6-6-4-4-4-4-4-4-4-4-------|
G|-------------------------------------------------------------------------|
D|-------------------------------------------------------------------------|
A|-------------------------------------------------------------------------|
E|-------------------------------------------------------------------------|
Gradually bend then shoot to ten, with tremolo effect.
e|-5-5-5-5-5-5-5-5-6-6-6-6-6-6-6-6-6-6b6b6b6b6b6b6b6b6b6b6b6b6b10~10~10~10~|
B|-------------------------------------------------------------------------|
G|-------------------------------------------------------------------------|
D|-------------------------------------------------------------------------|
A|-------------------------------------------------------------------------|
E|-------------------------------------------------------------------------|
Pre-Verse
Lead
e|-----6-------------6-------------6-------------6--------------------|
B|-x-x---x-x-6-6-x-x---x-x-6-6-x-x---x-x-6-6-x-x---x-x-6-6------------|
G|-x-x---x-x-----x-x---x-x-----x-x---x-x-----x-x---x-x----------------|
D|-x-x---x-x-----x-x---x-x-----x-x---x-x-----x-x---x-x----------------|
A|--------------------------------------------------------------------|
E|--------------------------------------------------------------------|
Rhythym
e|--------------------------------------------------------------------|
B|--------------------------------------------------------------------|
G|-7-7-x-x-7-7-7-x-7-7-7-x-7-7-7-7-7-7-7-x-x-7-7-7-x-7-7-7-x-7-7-7-7-7|
D|-8-8-x-x-8-8-8-x-8-8-8-x-8-8-8-8-8-8-8-x-x-8-8-8-x-8-8-8-x-8-8-8-8-8|
A|-8-8-x-x-8-8-8-x-8-8-8-x-8-8-8-8-8-8-8-x-x-8-8-8-x-8-8-8-x-8-8-8-8-8|
E|-6-6-x-x-6-6-6-x-6-6-6-x-6-6-6-6-6-6-6-x-x-6-6-6-x-6-6-6-x-6-6-6-6-6|
Lead
                             Gradual half bend (12), then quick release
e|--6---6--6---------8--8--8--8---10-10-10-10-10-10-10-10-10-10-10-10-10-10|
B|/8-8----8--8---/10--10-10-10----11b11b11b11b11b11b11b11b11b11b11b11b11-11|
G|-------------------------------------------------------------------------|
D|-------------------------------------------------------------------------|
A|-------------------------------------------------------------------------|
E|-------------------------------------------------------------------------|
Rhythm
e|--------------------------------------------------------------------|
B|--------------------------------------------------------------------|
G|--------------------------------------------------------------------|
D|-5-5-5-5-5-5-5-5-7-7-7-7-7-7-7-7-8-8-x-x-8-8-8-x-8-8-8-x-8-8-8-8-8--|
A|-5-5-5-5-5-5-5-5-7-7-7-7-7-7-7-7-8-8-x-x-8-8-8-x-8-8-8-x-8-8-8-8-8--|
E|-3-3-3-3-3-3-3-3-5-5-5-5-5-5-5-5-6-6-x-x-6-6-6-x-6-6-6-x-6-6-6-6-6--|

Verse 2 (2 Guitars)

Lead
e|-----6-------------6-------------6-------------6--------------------|
B|-x-x---x-x-6-6-x-x---x-x-6-6-x-x---x-x-6-6-x-x---x-x-6-6------------|
G|-x-x---x-x-----x-x---x-x-----x-x---x-x-----x-x---x-x----------------|
D|-x-x---x-x-----x-x---x-x-----x-x---x-x-----x-x---x-x----------------|
A|--------------------------------------------------------------------|
E|--------------------------------------------------------------------|
Rhythym
e|--------------------------------------------------------------------|
B|--------------------------------------------------------------------|
G|-7-7-x-x-7-7-7-x-7-7-7-x-7-7-7-7-7-7-7-x-x-7-7-7-x-7-7-7-x-7-7-7-7-7|
D|-8-8-x-x-8-8-8-x-8-8-8-x-8-8-8-8-8-8-8-x-x-8-8-8-x-8-8-8-x-8-8-8-8-8|
A|-8-8-x-x-8-8-8-x-8-8-8-x-8-8-8-8-8-8-8-x-x-8-8-8-x-8-8-8-x-8-8-8-8-8|
E|-6-6-x-x-6-6-6-x-6-6-6-x-6-6-6-6-6-6-6-x-x-6-6-6-x-6-6-6-x-6-6-6-6-6|

Lead
e|----/6-----6-8-----6-------------6------------6---------------------|
B|-x-x---x-x-----x-x---x-x-6-6-x-x---x-x-6-4-x----6-5-5-5-5-----------|
G|-x-x---x-x-----x-x---x-x-----x-x---x-x-----x------------------------|
D|-x-x---x-x-----x-x---x-x-----x-x---x-x-----x------------------------|
A|--------------------------------------------------------------------|
E|--------------------------------------------------------------------|
Rythym
e|--------------------------------------------------------------------|
B|--------------------------------------------------------------------|
G|---------------------------------7-7-x-x-7-7-7-x-7-7-7-x-7-7-7-7-7--|
D|-5-5-5-5-5-5-5-5-7-7-7-7-7-7-7-7-8-8-x-x-8-8-8-x-8-8-8-x-8-8-8-8-8--|
A|-5-5-5-5-5-5-5-5-7-7-7-7-7-7-7-7-8-8-x-x-8-8-8-x-8-8-8-x-8-8-8-8-8--|
E|-3-3-3-3-3-3-3-3-5-5-5-5-5-5-5-5-6-6-x-x-6-6-6-x-6-6-6-x-6-6-6-6-6--|

Lead
e|-----------6-6-----------6-6-----------6-6-----------6-6------------|
B|-x--6------------x--6----------x-6-----------x--6-------------------|
G|-x---------------x-------------x-------------x----------------------|
D|--------------------------------------------------------------------|
A|--------------------------------------------------------------------|
E|--------------------------------------------------------------------|
Rhythym
e|--------------------------------------------------------------------|
B|--------------------------------------------------------------------|
G|-7-7-x-x-7-7-7-x-7-7-7-x-7-7-7-7-7-7-7-x-x-7-7-7-x-7-7-7-x-7-7-7-7-7|
D|-8-8-x-x-8-8-8-x-8-8-8-x-8-8-8-8-8-8-8-x-x-8-8-8-x-8-8-8-x-8-8-8-8-8|
A|-8-8-x-x-8-8-8-x-8-8-8-x-8-8-8-8-8-8-8-x-x-8-8-8-x-8-8-8-x-8-8-8-8-8|
E|-6-6-x-x-6-6-6-x-6-6-6-x-6-6-6-6-6-6-6-x-x-6-6-6-x-6-6-6-x-6-6-6-6-6|

Lead
e|--/6-------6-8-----6--------------6-----------6---------------------|
B|-x----x-x--------x---x-x-6-6-x-x----x-x-6-6-x---6-6-6-6-6-----------|
G|-x----x-x--------x---x-x-----x-x----x-x-----x-----------------------|
D|--------------------------------------------------------------------|
A|--------------------------------------------------------------------|
E|--------------------------------------------------------------------|
Rythym
e|--------------------------------------------------------------------|
B|--------------------------------------------------------------------|
G|---------------------------------7-7-x-x-7-7-7-x-7-7-7-x-7-7-7-7-7--|
D|-5-5-5-5-5-5-5-5-7-7-7-7-7-7-7-7-8-8-x-x-8-8-8-x-8-8-8-x-8-8-8-8-8--|
A|-5-5-5-5-5-5-5-5-7-7-7-7-7-7-7-7-8-8-x-x-8-8-8-x-8-8-8-x-8-8-8-8-8--|
E|-3-3-3-3-3-3-3-3-5-5-5-5-5-5-5-5-6-6-x-x-6-6-6-x-6-6-6-x-6-6-6-6-6--|

Chorus

e|-5-5-5-5-5-5-5-5-6-6-6-6-6-6-6-6-6---------------------------------------|
B|-----------------------------------6-6-6-6-6-6-6-6-4-4-4-4-4-4-4-4-------|
G|-------------------------------------------------------------------------|
D|-------------------------------------------------------------------------|
A|-------------------------------------------------------------------------|
E|-------------------------------------------------------------------------|

e|-5-5-5-5-5-5-5-5-6-6-6-6-6-6-6-6-6---------------------------------------|
B|-----------------------------------4-4-4-4-4-4-4-4-3-3-3-3-3-3-3-3-------|
G|-------------------------------------------------------------------------|
D|-------------------------------------------------------------------------|
A|-------------------------------------------------------------------------|
E|-------------------------------------------------------------------------|

e|-5-5-5-5-5-5-5-5-6-6-6-6-6-6-6-6-6---------------------------------------|
B|-----------------------------------6-6-6-6-6-6-6-6-4-4-4-4-4-4-4-4-------|
G|-------------------------------------------------------------------------|
D|-------------------------------------------------------------------------|
A|-------------------------------------------------------------------------|
E|-------------------------------------------------------------------------|

Gradually bend then shoot to ten, with tremolo effect.
e|-5-5-5-5-5-5-5-5-6-6-6-6-6-6-6-6-6-6b6b6b6b6b6b6b6b6b6b6b6b6b10~10~10~10~|
B|-------------------------------------------------------------------------|
G|-------------------------------------------------------------------------|
D|-------------------------------------------------------------------------|
A|-------------------------------------------------------------------------|
E|-------------------------------------------------------------------------|
Another two bars of feedback tremolo and slides then:

e|-------------------------------------------------------------------------|
B|-------------------------------------------------------------------------|
G|-7-7-7-7-7-7-7-7-7-5-5-5-5-5-5-5---7-7-7-7-7-7-7-7-7-5-5-5-5-5-5-5-------|
D|-------------------------------------------------------------------------|
A|-------------------------------------------------------------------------|
E|-------------------------------------------------------------------------|

Lead
e|----6-6------------6-6---------------------------------------------------|
B|-x-x---x-x-6-6-x-x----x-x-6-6--------------------------------------------|
G|-------------------------------------------------------------------------|
D|-------------------------------------------------------------------------|
A|-------------------------------------------------------------------------|
E|-------------------------------------------------------------------------|
Rhythym
e|-------------------------------------------------------------------------|
B|-------------------------------------------------------------------------|
G|-------------------------------------------------------------------------|
D|-5-5-5-5-5-5-5-5-7-7-7-7-7-7-7-7-8-8-x-8-8-8-x-8-8-8-x-8-8-8-8-8---------|
A|-5-5-5-5-5-5-5-5-7-7-7-7-7-7-7-7-8-8-x-8-8-8-x-8-8-8-x-8-8-8-8-8---------|
E|-3-3-3-3-3-3-3-3-5-5-5-5-5-5-5-5-6-6-x-6-6-6-x-6-6-6-x-6-6-6-6-6---------|

verse 3

e|-------------------------------------------------------------------------|
B|-------------------------------------------------------------------------|
G|-7-7-7-7-7-7-7-7-7-5-5-5-5-5-5-5---7-7-7-7-7-7-7-7-7-5-5-5-5-5-5-5-------|
D|-------------------------------------------------------------------------|
A|-------------------------------------------------------------------------|
E|-------------------------------------------------------------------------|

Lead
e|----6-6------------6-6---------------------------------------------------|
B|-x-x---x-x-6-6-x-x----x-x-6-6--------------------------------------------|
G|-------------------------------------------------------------------------|
D|-------------------------------------------------------------------------|
A|-------------------------------------------------------------------------|
E|-------------------------------------------------------------------------|
Rhythym
e|-------------------------------------------------------------------------|
B|-------------------------------------------------------------------------|
G|-------------------------------------------------------------------------|
D|-5-5-5-5-5-5-5-5-7-7-7-7-7-7-7-7-8-8-x-8-8-8-x-8-8-8-x-8-8-8-8-8---------|
A|-5-5-5-5-5-5-5-5-7-7-7-7-7-7-7-7-8-8-x-8-8-8-x-8-8-8-x-8-8-8-8-8---------|
E|-3-3-3-3-3-3-3-3-5-5-5-5-5-5-5-5-6-6-x-6-6-6-x-6-6-6-x-6-6-6-6-6---------|

Chorus
Just Lead:
e|-----------------------------------------------------------------------|
B|-4/10-10-10----10-10/11---11\6---6-6\4---4/10----10/11-----------------|
G|-----------------------------------------------------------------------|
D|-----------------------------------------------------------------------|
A|-----------------------------------------------------------------------|
E|-----------------------------------------------------------------------|

Lead
Again Gradual half bend the relese
e|--10-10-10-10-10-10-10-10-10-10-10-10-10-10------------------------------|
B|--11b11b11b11b11b11b11b11b11b11b11b11b11-11------------------------------|
G|-------------------------------------------------------------------------|
D|-------------------------------------------------------------------------|
A|-------------------------------------------------------------------------|
E|-------------------------------------------------------------------------|
Rhythym
e|-------------------------------------------------------------------------|
B|-------------------------------------------------------------------------|
G|-------------------------------------------------------------------------|
D|-8-8-8-8-8-8-8-8-8-8-8-8-8-8-8-8-----------------------------------------|
A|-8-8-8-8-8-8-8-8-8-8-8-8-8-8-8-8-----------------------------------------|
E|-6-6-6-6-6-6-6-6-6-6-6-6-6-6-6-6-----------------------------------------|

Lead
e|5-5-5-5-5-5-5-5-6-6-6-6-6-6-6-6-6-8-11-11-11-11-10-10-10-10-5-5-5-5-6-666|
B|-------------------------------------------------------------------------|
G|-------------------------------------------------------------------------|
D|-------------------------------------------------------------------------|
A|-------------------------------------------------------------------------|
E|-------------------------------------------------------------------------|
Rhythym
e|-------------------------------------------------------------------------|
B|-------------------------------------------------------------------------|
G|-3-3-3-2-3-3-3-2-3-3-3-2-3-3-3-2-3-3-3-2-3-3-3-2-3-3-3-2-3-3-3-2---------|
D|-------------------------------------------------------------------------|
A|-------------------------------------------------------------------------|
E|-------------------------------------------------------------------------|

Lead
e|-5-5-5-5-5-5-5-5-6-6-6-6-6-6-6-6-6---------------------------------------|
B|-----------------------------------6-6-6-6-6-6-6-6-6\4-4-4-4-4-4-4-------|
G|-------------------------------------------------------------------------|
D|-------------------------------------------------------------------------|
A|-------------------------------------------------------------------------|
E|-------------------------------------------------------------------------|
Rhythym
e|-------------------------------------------------------------------------|
B|-------------------------------------------------------------------------|
G|-3-3-3-2-3-3-3-2-3-3-3-2-3-3-3-2---------3--3-----------3---3------------|
D|-------------------------------------------------------------------------|
A|-------------------------------------------------------------------------|
E|-----------------------------------6-6---------6--6--6-------------------|

Lead
e|-5-5-5-5-5-5-5-5-6-6-6-6-6-6-6-6-6--5------8------6------5---------------|
B|-------------------------------------------------------------------------|
G|-------------------------------------------------------------------------|
D|-------------------------------------------------------------------------|
A|-------------------------------------------------------------------------|
E|-------------------------------------------------------------------------|
Rhythym
e|-------------------------------------------------------------------------|
B|-------------------------------------------------------------------------|
G|-3-3-3-2-3-3-3-2-3-3-3-2-3-3-3-2---3-3-3-3-5-5-5-5-3-3-3-3-2-2-2-2-------|
D|-------------------------------------------------------------------------|
A|-------------------------------------------------------------------------|
E|-------------------------------------------------------------------------|

Lead                                various effect feedback 6-8
e|-5-5-5-5-5-5-5-5-6-6-6-6-6-6-6-6-6-6-6-6-8-6-6-8-6-6-6-8-6-8-6-----------|
B|-------------------------------------------------------------------------|
G|-------------------------------------------------------------------------|
D|-------------------------------------------------------------------------|
A|-------------------------------------------------------------------------|
E|-------------------------------------------------------------------------|
Rhythym
e|-------------------------------------------------------------------------|
B|-------------------------------------------------------------------------|
G|-3-3-3-2-3-3-3-2-3-3-3-2-3-3-3-2-----------------------------------------|
D|----------------------------------8-8-8-8-8-8-8-8-8-8-8-8-8-8-8-8--------|
A|----------------------------------8-8-8-8-8-8-8-8-8-8-8-8-8-8-8-8--------|
E|----------------------------------6-6-6-6-6-6-6-6-6-6-6-6-6-6-6-6--------|

Lead,various effect feedback 6-9.....  6-10.....         Slide Down
e|-6-9---------------------------------6-10-------------\\\\\\\\-----------|
B|-------------------------------------------------------------------------|
G|-------------------------------------------------------------------------|
D|-------------------------------------------------------------------------|
A|-------------------------------------------------------------------------|
E|-------------------------------------------------------------------------|
Rhythym
e|-------------------------------------------------------------------------|
B|-------------------------------------------------------------------------|
G|-------------------------------------------------------------------------|
D|--8-8-8-8-8-8-8-8-8-8-8-8-8-8-8-8-8-8-8-8-8-8-8-8-8-8-8-8-8-8-8-8--------|
A|--8-8-8-8-8-8-8-8-8-8-8-8-8-8-8-8-8-8-8-8-8-8-8-8-8-8-8-8-8-8-8-8--------|
E|--6-6-6-6-6-6-6-6-6-6-6-6-6-6-6-6-6-6-6-6-6-6-6-6-6-6-6-6-6-6-6-6--------|

e|-------------------------------------------------------------------------|
B|-------------------------------------------------------------------------|
G|-------------------------------------------------------------------------|
D|--8----------------------------------------------------------------------|
A|--8----------------------------------------------------------------------|
E|--6----------------------------------------------------------------------|

They're not unsigned, you can buy this on iTunes, I believe they're signed to Universal 
although there website doesn't appear to be running.

| / slide up
| \  slide down
| h  hammer-on
| p  pull-off
| ~  vibrato
| +  harmonic
| x  Mute note
============================================================================
Добавлено: 16.09.2013
Другие материалы по этой песне:
  • Аккорды и текст

Страница создана 16.09.2013
http://primanota.ru/misc-unsigned-bands/cherry-falls-standing-watching-chords.htm
Привет, Гость.
Предлагаем пройти революционный курс по гитаре.
Подарок от PrimaNota.Ru, забирай!