PrimaNota.ru - самый крупный в мире бесплатный архив песенных текстов, аккордов, табулатур и нот


Misc Unsigned Bands - Chris Christian - Praise The Lord - таба, видео

Регистрация Запомнить меня
Войти через:  Facebook Google Twitter Vk Yandex Mail.ru

Misc Unsigned Bands - Chris Christian - Praise The Lord - таба, видео

Печатать
Просмотров: 38
Song Title:     Praise The Lord
Artist:         Chris Christian
Album Title:    Mirror Of Your Heart
Transcribed by: Geoffrey B Oblimar


Verse 1:
G                                        C2
When you're up against the struggle that shutters all your dreams
          G                                         C2
When your hopes have been cruelly crushed a Satan's manifested schemes
             Em                            C
And when you feel the urge within you to submit to earthly fears
        Em                                  C                D
And the faith you've been standin' in just seem to disappear


Chorus:
           Am - E
Praise the Lord
        Am                       D
He can work through those who praise Him
           G - D
Praise the Lord
        Bm           E
For our God inhabits praise
           Am - E
Praise the Lord
         Am                  D
For the chains that seem to bind you
      Am         D                        Am         D
Serve only to remind you, that they drop powerless behind you
           C     G
When you praise Him


Verse 2:
     G                      C2
Now, Satan is a liar and he wants to make us think
            G                                     C2
That we are paupers, when he knows himself we are children of the King
        Em                                    C
So lift up the mighty shield of faith for the battle must be won
              Em                            C                  D
We know that Jesus Christ is risen so the work's already done


Repeat Chorus


Solo:
            Am    E        Am    D       G      D           Bm
                half       half
e|--------------------------------------------------------------|
B|----------5~--br9~--7p5h7b-----7-5----------------------------|
G|------5-7--------------------------7-5-4h5p4--4h5p4--4h5p4/7~-|
D|--5-7---------------------------------------------------------|
A|--------------------------------------------------------------|
E|--------------------------------------------------------------|


   E         Am          E       Am      D        c         G

e|-------------------------------------------------------------|
B|-------------------------------------------------------------|
G|-s/9\7-5-4-5---5-4-2-4-5---5-4-5---5p4-2--2h4p2-0------------|
D|----------------------------------------------------5-4-2-0--|
A|-------------------------------------------------------------|
E|-------------------------------------------------------------|


Repeat Chorus


Ending:
  C     G
Praise Him
  C     G
Praise Him
           C     G
When you praise Him
         D - A
When you praise Him
         C - D       G
When you praise the Lord


________________________________________________________
Any comments/corrections? e-mail me: gboblimar@yahoo.com
Добавлено: 08.11.2013
Другие материалы по этой песне:
  • Аккорды и текст

Страница создана 08.11.2013
http://primanota.ru/misc-unsigned-bands/chris-christian-praise-the-lord-chords.htm
Привет, Гость.
Предлагаем пройти революционный курс по гитаре.
Подарок от PrimaNota.Ru, забирай!