PrimaNota.ru - самый крупный в мире бесплатный архив песенных текстов, аккордов, табулатур и нот


Misc Unsigned Bands - Chimsons - My Only One - таба

Регистрация Запомнить меня
Войти через:  Facebook Google Twitter Vk Yandex Mail.ru

Misc Unsigned Bands - Chimsons - My Only One - таба

Печатать
Просмотров: 36
MY ONLY ONE by The Chimsons

INTRO:

e|-------------------------------------|
B|-------------------------------------|
G|-7-7-10-10--9-9-9-7~--5-5-10-9-7~----| 2x
D|-7-7-10-10--9-9-9-7~--5-5-10-9-7~----|
A|-5-5-8--8---7-7-7-5~--3-3-8--7-5~----|
E|-------------------------------------|

VERSE:

e|--------------------------------------|
B|--------------------------------------|
G|-7-7-10-10--9-9-9-7~--5-5-10-9-7~-----| paulit-ulit lang..
D|-7-7-10-10--9-9-9-7~--5-5-10-9-7~-----|
A|-5-5-8--8---7-7-7-5~--3-3-8--7-5~-----|
E|--------------------------------------|

REFRAIN:

e|-------------------    --------------|
B|-------------------    --------------|
G|-7-7-7-7--5-5-5-5-- 3x -7-7-7-7--9~--|
D|-7-7-7-7--5-5-5-5--    -7-7-7-7--9~--|
A|-5-5-5-5--3-3-3-3--    -5-5-5-5--7~--|
E|-------------------    --------------|

CHORUS:

e|---------------------------------------|
B|---------------------------------------|
G|-7-7-10~--7-7-12~--7-7-10~--14-12-10---| paulit-ulit lang din..
D|-7-7-10~--7-7-12~--7-7-10~--14-12-10---|
A|-5-5-8-~--5-5-10~--5-5-8-~--12-10-8----|
E|---------------------------------------|

NITRAM
10-16-08
09:11 PM
Добавлено: 15.08.2013
Другие материалы по этой песне:
  • Аккорды и текст

Страница создана 15.08.2013
http://primanota.ru/misc-unsigned-bands/chimsons-my-only-one-chords.htm
Привет, Гость.
Предлагаем пройти революционный курс по гитаре.
Подарок от PrimaNota.Ru, забирай!