PrimaNota.ru - самый крупный в мире бесплатный архив песенных текстов, аккордов, табулатур и нот


Misc Unsigned Bands - Blood Guts Firetrucks - Gets Me Every Time - таба

Регистрация Запомнить меня
Войти через:  Facebook Google Twitter Vk Yandex Mail.ru

Misc Unsigned Bands - Blood Guts Firetrucks - Gets Me Every Time - таба

Печатать
Просмотров: 53
-------------------------------------------------------------------------------
                             GETS ME EVERY TIME - Blood, Guts & Firetrucks
-------------------------------------------------------------------------------
Tabbed by: Ryan
E-mail: blood.guts.firetrucks@gmail.com

Tuning: EADGbe


Verse 1:
A                             F#m
I couldn't wait to see what's going on
Bm                Bm/A   G                   D/F#
I couldn't handle crazy, I'd love to see you hate me
E7
I'm too young and i'm too lazy
C#m                 E
Problems solved are often hazy

A                           F#m
We've been together for the longest time
Bm                  Bm/A     G                     D/F#
I always knew you'd save me, tell me which road to take and
E7
Be the Tegan to my Katie
C#m            E
Tell me pretty things please baby

Chorus:

A               C#7
I keep trying to believe you
D                       Dm
What am I doing to this poor old heart of mine?
A               C#7
I keep going to refuse you
D                                 Dm
Curse your pretty face because it gets me every time

Verse 2:
A                              F#m
Oh turpentine won't you please strip away
Bm                Bm/A    G                     D/F#
This brush is overloaded, it looked good when I wrote it
E7
You're the picture bought and sold though
C#m                E
Nobody knew how to hold it

A                          F#
This masquerade is keeping me awake
Bm                               Bm/A      G                  D/F#
You won't dance when they're all watching, ballerina takes up boxing
E7
You've got something you keep locked
C#m                  E
That I would love to see if only

Chorus 2:
A               C#7
I keep trying to believe you
D                       Dm
What am I doing to this poor old heart of mine?
A               C#7
I keep going to refuse you
D                                 Dm
Curse your pretty face because it gets me every time

Bridge:


e|---------------------------------------------------------------------------|
B|---------------------------------------------------------------------------|
G|---------------------------------------------------------------------------|
D|--11-11-11--11-11-11-11---9--9--9---9--9--9--9----7--7--7----7--7--7--7----|
A|--0--0--0---0--0--0--0----8--8--8---8--8--8--8----9--9--9----9--9--9--9----|
E|---------------------------------------------------------------------------|
   1.If I stay, you'll be my take away, but you don't wanna play just give me
   2. And by the way, I'd like to say,                        I like this 
e|-----------------------------|
B|-----------------------------|
G|-----------------------------|
D|--7--7--7----7--7--7--7------|
A|--8--8--8----8--8--8--8------|
E|-----------------------------|
  something I can change
  better when it went the other way


Harmony Guitar section:
Guitar 1
e|---------------------------------------------------------------------------|
B|---------------------------------------------------------------------------|
G|---------------------------------------------------------------------------|
D|------11-----------11----9--------------9----7------------7--7-------------|
A|----------12-----------------11---8--------------9----5--------8-7-5-------|
E|--------------12-----------------------------------------------------------|

Guitar 2
e|---------------------------------------------------------------------------|
B|-------------------------------------------------------------13-12---------|
G|------9------------9-----10-----------10---11-----------11---------10------|
D|----------11-----------------11----------------12---------------------10---|
A|--------------12------------------11--------------12-----------------------|
E|---------------------------------------------------------------------------|

Chorus x2 with Harmony Guitar 1 over the chords the second time



************************************

| /   slide up
| \   slide down
| h   hammer-on
| p   pull-off
| ~   vibrato
| +   harmonic
| x   Mute note
| b   Bend
| pb  Pre-bend
| br  Bend release
| pbr Pre-bend release
| brb Bend release bend

************************************
Добавлено: 28.07.2013
Другие материалы по этой песне:
  • Аккорды и текст

Страница создана 28.07.2013
http://primanota.ru/misc-unsigned-bands/blood-guts-firetrucks-gets-me-every-time-chords.htm
Привет, Гость.
Предлагаем пройти революционный курс по гитаре.
Подарок от PrimaNota.Ru, забирай!