PrimaNota.ru - самый крупный в мире бесплатный архив песенных текстов, аккордов, табулатур и нот


Misc Unsigned Bands - Borealia - Mile Zero - таба

Регистрация Запомнить меня
Войти через:  Facebook Google Twitter Vk Yandex Mail.ru

Misc Unsigned Bands - Borealia - Mile Zero - таба

Печатать
Просмотров: 47
Borealia - Mile Zero

Standard tuning (BEADGBE)


1st section

Let ring throughout

 w/reverb, delay and harmonizer
|------------14---------------------|-----------13----------------------|
|-------11--------13----------------|-------9--------11-----------------|
|--13-------------------------------|--11-------------------------------|
|-----------------------------------|-----------------------------------|
|-----------------------------------|-----------------------------------|
|-----------------------------------|-----------------------------------|
|-----------------------------------|-----------------------------------|

Harmonizer is used in the right channel on last couple repeats on last note. 
Expression pedal raises pitch one fifth while sustaining original note.


2nd section

 w/dist
|------------14~~~----------------|---------------------------------|
|-------11--------13~~~~----------|---------------------------------|
|-/13-----------------------------|---------------------------------|
|---------------------------------|---------------------------------|
|---------------------------------|---------------------------------|
|---------------------------------|---------------------------------|
|---------------------------------|---------------------------------|
|
|w/dist
|---------------------------------|---------------------------------|
|---------------------------------|---------------------------------|
|--5-----------5------------------|--5-----------5------------------|
|--x-----------x------------------|--x-----------x------------------|
|--6---6-66-6-66---6-66-6-6--666--|--6---6-66-6-66---6-66-6-6--666--|
|--4---4-44-4-44---4-44-4-4--444--|--4---4-44-4-44---4-44-4-4--444--|
|--4---4-44-4-44---4-44-4-4--444--|--4---4-44-4-44---4-44-4-4--444--|


|------------13~~~----------------|---------------------------------|
|-------9---------11~~~~----------|---------------------------------|
|-/11-----------------------------|---------------------------------|
|---------------------------------|---------------------------------|
|---------------------------------|---------------------------------|
|---------------------------------|---------------------------------|
|---------------------------------|---------------------------------|
|
|
|---------------------------------|---------------------------------|
|---------------------------------|---------------------------------|
|--3-----------3------------------|--3-----------3------------------|
|--x-----------x------------------|--x-----------x------------------|
|--4---4-44-4-44---4-44-4-4--444--|--4---4-44-4-44---4-44-4-4--444--|
|--2---2-22-2-22---2-22-2-2--222--|--2---2-22-2-22---2-22-2-2--222--|
|--2---2-22-2-22---2-22-2-2--222--|--2---2-22-2-22---2-22-2-2--222--|


Chorus

Rhythm guitar continues previous figure
 w/dist and delay
||---------------------------|--------------15----16-----||
||--13-------13-------14-----|-----16--------------------||
||o----13-13----13-13----13--|--13----13-13----13----13-o||
||---------------------------|---------------------------||
||o--------------------------|--------------------------o||
||---------------------------|---------------------------||
||---------------------------|---------------------------||

||---------------------------|--------------13----14-----||
||--11-------11-------13-----|-----14--------------------||
||o----11-11----11-11----11--|--11----11-11----11----11-o||
||---------------------------|---------------------------||
||o--------------------------|--------------------------o||
||---------------------------|---------------------------||
||---------------------------|---------------------------||

Bridge

|---------------------------------|---------------------------------|
|---------------------------------|---------------------------------|
|--/14--------------(14)b16--r(14)|-(14)--------------(14)b16-r(14)-|
|---------------------------------|---------------------------------|
|---------------------------------|---------------------------------|
|---------------------------------|---------------------------------|
|---------------------------------|---------------------------------|
|
|
|---------------------------------|---------------------------------|
|---------------------------------|---------------------------------|
|---------------------------------|---------------------------------|
|---------------------------------|---------------------------------|
|--7---7-77-7-77---7-77-7-7--777--|--3---3-33-3-33---3-33-3-3--333--|
|--5---5-55-5-55---5-55-5-5--555--|--3---3-33-3-33---3-33-3-3--333--|
|--5---5-55-5-55---5-55-5-5--555--|--1---1-11-1-11---1-11-1-1--111--|

|---------------------------------|------------------------------------------------|
|---------------------------------|------------------------------------------------|
|--(14)------------(14)b16--r(14)-|-(14)--------------------------12--11~~~~~~~~~--|
|---------------------------------|------------------------------------------------|
|---------------------------------|------------------------------------------------|
|---------------------------------|------------------------------------------------|
|---------------------------------|------------------------------------------------|
|
|
|---------------------------------|------------------------------------------------|
|---------------------------------|------------------------------------------------|
|---------------------------------|------------------------------------------------|
|---------------------------------|------------------------------------------------|
|--7---7-77-7-77---7-77-7-7--777--|--10--10-1010-10-1010---10-1010-10-12---121212--|
|--5---5-55-5-55---5-55-5-5--555--|--8---8--8-8--8--8-8----8--8-8--8--10---101010--|
|--5---5-55-5-55---5-55-5-5--555--|--8---8--8-8--8--8-8----8--8-8--8--10---101010--|


Solo section (rhythm only)

Clean guitar repeats intro figure

 w/dist
|---------------------------|---------------------------|
|---------------------------|---------------------------|
|---------------------------|---------------------------|
|---------------------------|---------------------------|
|---------------------------|---------------------------|
|--4-------(feedback)-------|--2----(feedback)----5-----|
|---------------------------|---------------------------|


Final chord:

Clean guitar
|--14^-------------------------|
|--11^------13-----------------|
|--13^-------------------------|
|------------------------------|
|------------------------------|
|------------------------------|
|------------------------------|


Listen to it here: http://www.last.fm/music/Borealia/In+The+North+Of+Our+Lives/Mile+Zero
Добавлено: 31.10.2013
Другие материалы по этой песне:
  • Аккорды и текст

Страница создана 31.10.2013
http://primanota.ru/misc-unsigned-bands/borealia-mile-zero-chords.htm
Привет, Гость.
Предлагаем пройти революционный курс по гитаре.
Подарок от PrimaNota.Ru, забирай!