PrimaNota.ru - самый крупный в мире бесплатный архив песенных текстов, аккордов, табулатур и нот


Misc Unsigned Bands - Born Hippy - Read On - таба

Регистрация Запомнить меня
Войти через:  Facebook Google Twitter Vk Yandex Mail.ru

Misc Unsigned Bands - Born Hippy - Read On - таба

Печатать
Просмотров: 51
**ARTIST**  **ALBUM**  **SONG**   
Born Hippy   Trippin'  Read On!

DADGBD Tuning
2 Guitarists
1 Acoustic Drummer

RIFF
D|-0------2------3------------2------3------------2---------2---------2--|
B|---3------3---------3---------3---------3----------3---3--2-----3------|
G|-----2------2----2-----0--------0----0--3--3-----------3--2------------|
D|-0--------------------------------------------------------2------------|
A|--------------------3-----3-------------1-----1------1----0---0---0----|
D|-0---------------------------------------------------------------------|


CHORDS|
D|-0------2------3-|--0-------2------3-|--x-----x------x-|--2---2--2-----|
B|-3------3------3-|--3-------3------3-|--3-----3------3-|--2---3--2-----|
G|-2------2------2-|--0-------0------0-|--3-----3------3-|--2---2--2-----|
D|-0------0------0-|--0-------0------0-|--x-----x------x-|--2---2--2-----|
A|-0------0------0-|--3-------3------3-|--1-----1------1-|--0---0--0-----|
D|-0------0------0-|--X-------X------X-|--x-----x------x-|--x---x--x-----|


ACOUSTIC MELODIC RIFF
D|-12--------------|--12---------------|--15-------------|--13-----------|
B|-15--------------|-------------------|-----------------|--13-----------|
G|-14--------------|--12---------------|--15-------------|--13-----------|
D|-----------------|-------------------|-----------------|--13-----------|
A|-----------------|-------------------|-----------------|---------------|
D|-----------------|-------------------|-----------------|---------------|


CHORUS
D|--0--|--3--|-----|--0--|   ***X2***|
B|--3--|--6--|--5--|--3--|   ***X2***|
G|--2--|--5--|--5--|--0--|   ***X2***|
D|--0--|--3--|-----|--0--|   ***X2***|
A|--0--|--3--|--3--|--5--|   ***X2***|
D|--0--|--3--|-----|--5--|   ***X2***|
Добавлено: 10.07.2013
Другие материалы по этой песне:
  • Аккорды и текст

Страница создана 10.07.2013
http://primanota.ru/misc-unsigned-bands/born-hippy-read-on-chords.htm
Привет, Гость.
Предлагаем пройти революционный курс по гитаре.
Подарок от PrimaNota.Ru, забирай!