PrimaNota.ru - самый крупный в мире бесплатный архив песенных текстов, аккордов, табулатур и нот


Misc Unsigned Bands - Bisrock - Langit Na Kanako - таба

Регистрация Запомнить меня
Войти через:  Facebook Google Twitter Vk Yandex Mail.ru

Misc Unsigned Bands - Bisrock - Langit Na Kanako - таба

Печатать
Просмотров: 57
Song: Langit Na Kanako

(Actually, the part of this song is done in keyboard, but I made the acoustic
guitar version of this song.)

Intro:
e|---------3------------3-----------0-----------2---------------------------|
B|-----3------1-----3------1----1------1----3------3------------------------|
G|-------0------------0-----------0-----------2-----------------------------|
D|----------------------------------------0---------------------------------|
A|----------------------------3---------------------------------------------|
E|---3-----------0----------------------------------------------------------|
     G           Em           C           D

Verse:
e --------------3-----------3----------0-----------2------------------------|
B ----------3------1----3-----1----1------1----3------3---------------------|
G ------------0-----------0----------0-----------2--------------------------|
D -------------------------------------------0------------------------------|
A ------------------------------3-------------------------------------------|
E --------3-----------0-----------------------------------------------------|
          G          Em        C             D
Hastang paita ang mahigugma labi na gyud sa gwapa

e --------------3------------3------------0--------------2------------------|
B ----------3------1-----3------1-----1------1-------3------3---------------|
G ------------0------------0------------0--------------2--------------------|
D -------------------------------------------------0------------------------|
A ---------------------------------3----------------------------------------|
E -------3------------0-----------------------------------------------------|
         G            Em           C               D
Dili ka tagdon likay-likayan kita intawon kay mupalayo nalang

e --------------3-------------3----------------------0-------------2--------|
B ----------3------1------3------1---------------1-------1-----3-------3----|
G ------------0-------------0----------------------0-------------2----------|
D ----------------------------------------------------------0---------------|
A --------------------------------------------3-----------------------------|
E -------3--------------0---------------------------------------------------|
         G              Em                    C             D
Akong gi-ampo ngadto sa langit nga ikaw akong maangkon sa hingpit

e -----------3------------------3-------------0---------------------2-------|
B -------3------1-----------3------1------1------1--------------3------3----|
G ---------0------------------0-------------0---------------------2---------|
D ------------------------------------------------------------0-------------|
A ---------------------------------------3----------------------------------|
E -----3------------------0-------------------------------------------------|
       G                  Em             C                    D
Unya ako na ang imung hinigugma pero dili ta kabuot sa kasing-kasing ta

Pre-chorus:
e -------0------------------2-----------0-----------2-----------------------|
B ---1------1-----------3------3----1------1----3------3--------------------|
G -----0------------------2-----------0-----------2-------------------------|
D --------------------0-----------------------0-----------------------------|
A -3------------------------------3-----------------------------------------|
E --------------------------------------------------------------------------|
   C                  D           C           D
Kanus-a mahunong ang unos?    Kanus-a   pa   ba...

Chorus:
E --------------3----------------3--------------------0------------------2---|
B ----------3------1---------3------1-------------1------1-----------3-----3-|
G ------------0----------------0--------------------0------------------2-----|
D -----------------------------------------------------------------0---------|
A ---------------------------------------------3-----------------------------|
E --------3----------------0-------------------------------------------------|
          G                Em                   C                   D
Kay kung ako ang imung higugma-on di gyud ka magmahay mapuno ka sa kalipay

E --------------3------------------3-------------0--------------------2-----|
B ----------3------1-----------3------1------1------1--------------3-----3--|
G ------------0------------------0-------------0---------------------2------|
D ---------------------------------------------------------------0----------|
A ------------------------------------------3-------------------------------|
E --------3------------------0----------------------------------------------|
           G                  Em           C                        D
Kay kung maangkon ko ang sama nimu ok na kanako bisa'g pinugos sa pagtando

E ------------0------------2-----------0------------2-----------------------|
B --------1------1-----3------3----1------1-----3---------------------------|
G ----------0------------2-----------0------------2-------------------------|
D ------------------0------------------------0------------------------------|
A ------3------------------------3------------------------------------------|
E --------------------------------------------------------------------------|
        C          D            C           D
Kay ang higugma-on ka   Kay ang higugma-on ka...
              G-Em-C-D-
Langit na kanako

Verse 2:
    G               Em             C                  D
Nagadahum ko nga musugot ka Pero napakyas ang akong pagduda
      G                Em            C                   D
Kay nabastid na wa lang damha Ing ani di ay ni pwertng sakita
        G                    Em               C                    D
Akong gidawat ang akong kapakyasan Pero dili mahanaw sa akong panumduman
       G             Em             C                D
Ang matahum mo nga larawan Kining turok na ang akong dughan

Pre-chorus:
   C                  D
Kanus-a mahunong ang unos
   C        D
Kanus-a pa ba...

Chorus:
          G                Em                   C                    D
Kay kung ako ang imung higugma-on Di gyud ka magmahay mapuno ka sa kalipay
           G                  Em           C                         D
Kay kung maangkon ko ang sama nimu Ok na kanako bisa'g pinugos sa pagtando
        C          D
Kay ang higugma-on ka
        C          D
Kay ang higugma-on ka...
             Em    D
Langit na kanako...hohhh
C       D
Wohh ohh Owohh hohh

Adlib: G-Em-C-D-;

Pre-chorus:
   C                  D
Kanus-a mahunong ang unos
   C        D
Kanus-a pa ba...

Chorus:
E --------------3----------------3--------------------0------------------2---|
B ----------3------1---------3------1-------------1------1-----------3-----3-|
G ------------0----------------0--------------------0------------------2-----|
D -----------------------------------------------------------------0---------|
A ---------------------------------------------3-----------------------------|
E --------3----------------0-------------------------------------------------|
          G                Em                   C                   D
Kay kung ako ang imung higugma-on di gyud ka magmahay mapuno ka sa kalipay

E --------------3------------------3-------------0--------------------2-----|
B ----------3------1-----------3------1------1------1--------------3-----3--|
G ------------0------------------0-------------0---------------------2------|
D ---------------------------------------------------------------0----------|
A ------------------------------------------3-------------------------------|
E --------3------------------0----------------------------------------------|
           G                  Em           C                        D
Kay kung maangkon ko ang sama nimu ok na kanako bisa'g pinugos sa pagtando

E ------------0------------2-----------0------------2------------3~--------|
B --------1------1-----3------3----1------1-----3----------------3~--------|
G ----------0------------2-----------0------------2--------------0~--------|
D ------------------0------------------------0-------------------0~--------|
A ------3------------------------3-------------------------------2~--------|
E ---------------------------------------------------------------3~--------|
        C          D            C           D                    G
Kay ang higugma-on ka   Kay ang higugma-on ka...    Langit na kanako.
Добавлено: 04.11.2013
Другие материалы по этой песне:
  • Аккорды и текст

Страница создана 04.11.2013
http://primanota.ru/misc-unsigned-bands/bisrock-langit-na-kanako-chords.htm
Привет, Гость.
Предлагаем пройти революционный курс по гитаре.
Подарок от PrimaNota.Ru, забирай!