PrimaNota.ru - самый крупный в мире бесплатный архив песенных текстов, аккордов, табулатур и нот


Misc Unsigned Bands - Blacktop Manhattan - Hollywise - таба, бас-таба

Регистрация Запомнить меня
Войти через:  Facebook Google Twitter Vk Yandex Mail.ru

Misc Unsigned Bands - Blacktop Manhattan - Hollywise - таба, бас-таба

Печатать
Просмотров: 60
Уроки эстрадного вокала в Санкт-Петербурге
I tabbed this with my Guitar teacher.

Standard Tunning.. Mild distortion

Just like to add that this is actually played with TWO guitars but i'll show you how to 
it so you can play it along with the song.

/ = slide up the fretboard
\ = Slide down the fretboard

--Hollywise--

~Intro

E|--------------------------------------|
B|--------------------------------------|
G|--------------------------------------| x 8
D|--------------------------------------|
A|-1--1/4--4--4\3--(3)------------------| (I play the 3 to link back to start again-you 
have to)
E|--------------------------------------|

Intro Harmony (This is the high part you hear the second time the into riff is played

E|--------------------------------------|
B|--------------------------------------|
G|--------------------------------------|
D|-/3--1--------------------------------| Second guitarist plays this every second time.
A|--------------------------------------|
E|--------------------------------------|

If you have two guitarists, play the way above, if you're by yourself, see below.

E|------------------------------------------|
B|------------------------------------------| x 4
G|------------------------------------------|
D|------------------------------/3--1-------|(Again use that 3 to link back to the start 
you like)
A|-1--1/4--4--4\3--(3)--1--1/4---------(3)--|
E|------------------------------------------|


~Verse (all palm muted)

E|--------------------------------------------------------------------|
B|--------------------------------------------------------------------|
G|--------------------------------------------------------------------| x 5 I think
D|-3-3-3-3-3-3-3-3-------------------6-6-6-6-6-6-6-6------------------|
A|-1-1-1-1-1-1-1-1--4-4-4-4-4-4-4-4--4-4-4-4-4-4-4-4--6-6-6-6-6-6-6-6-|
E|------------------2-2-2-2-2-2-2-2-------------------4-4-4-4-4-4-4-4-|


Chorus i think is dead the same as the intro.

Enjoy.

Tabbed by Kate and my teacher
Добавлено: 31.10.2013
Другие материалы по этой песне:
  • Аккорды и текст

Страница создана 11.08.2013
http://primanota.ru/misc-unsigned-bands/blacktop-manhattan-hollywise-chords.htm
Привет, Гость.
Предлагаем пройти революционный курс по гитаре.
Подарок от PrimaNota.Ru, забирай!