PrimaNota.ru - самый крупный в мире бесплатный архив песенных текстов, аккордов, табулатур и нот


Misc Unsigned Bands - Bird Calls - Rotten Leaves - бас-таба, видео

Регистрация Запомнить меня
Войти через:  Facebook Google Twitter Vk Yandex Mail.ru

Misc Unsigned Bands - Bird Calls - Rotten Leaves - бас-таба, видео

Печатать
Просмотров: 63
BIRD CALLS - ROTTEN LEAVES (EMOSH)

Guitar on It's own

G|--------------------------------------------------------------|
D|--------------------------------------------------------------|
A|-9-9-9-9-9-9-9-9-9-9-9-9-9-14-12-10-12-10-9--14-12-10-12-10-9-|
E|--------------------------------------------------------------|

G|-----------------|
D|-----------------|
A|-7---------------|
E|---------0-------|

G|--------------------------------------------------------------|
D|--------------------------------------------------------------|
A|-9-9-9-9-9-9-9-9-9-9-9-9-9-14-12-10-12-10-9--14-12-10-12-10-9-|
E|--------------------------------------------------------------|

--------------------------------------------------------------------------

G|----------7-7-------------7/9\7----------7-7-----7/9\7-7-----|
D|------5-5-----5-5-----5-5------------5-5-----5-5---------5---|
A|-7--7-------------7-7-----------7--7-----------------------7-| 1,3
E|-------------------------------------------------------------|

G|----------9-9-------------9/11\9----------9-9-----9/11\9-9-----|
D|------7-7-----7-7-----7-7-------------7-7-----7-7----------7---|
A|-9--9-------------9-9------------9--9------------------------9-| 2,4
E|---------------------------------------------------------------|

G|-9-7-------------|-16--14--11-------------|-16-18-19-18--16-11----|
D|------9-7--------|---------------12/14\12-|-----------------------|
A|-----------7/9---|------------------------|-----------------------|
E|-----------------|----- 1,3 --------------|------ 2,4 ------------|

G|-11--9---------------------------------------------------------------|
D|--------9-/11-11-11-14-12-11-9-9-9-9-9-11-12-------------------------|
A|---------------------------------------------10-10-10-10-10-10-10-10-| x4
E|---------------------------------------------------------------------|

G|-------------------------|
D|-------------------------|
A|-10-10-10-10-10-10-10-10-|
E|-------------------------|

play section x2
---------------------------------------------------------------------------

Guitar on It's own then

G|-16--14--11----------11h12p11----16--14--19--18-16-18----|
D|------------12/14\12----------12----------------------19-|
A|---------------------------------------------------------| x3
E|---------------------------------------------------------|

G|-9-7-------------|-16--14--11-------------|-16-18-19-18--16-11----|
D|------9-7--------|---------------12/14\12-|-----------------------|
A|-----------7/9---|------------------------|-----------------------|
E|-----------------|----- 1,3 --------------|------ 2 --------------|


G|-9-7----------16-18-19-18--16-19--------|
D|-------7--------------------------------|
A|----------7/9---------------------------|
E|----------------------------------------|
Добавлено: 03.11.2013
Другие материалы по этой песне:
  • Аккорды и текст

Страница создана 03.11.2013
http://primanota.ru/misc-unsigned-bands/bird-calls-rotten-leaves-chords.htm
Привет, Гость.
Предлагаем пройти революционный курс по гитаре.
Подарок от PrimaNota.Ru, забирай!