PrimaNota.ru - самый крупный в мире бесплатный архив песенных текстов, аккордов, табулатур и нот


Misc Unsigned Bands - Christopher Tyng - Theme From Futurama - бас-таба

Регистрация Запомнить меня
Войти через:  Facebook Google Twitter Vk Yandex Mail.ru

Misc Unsigned Bands - Christopher Tyng - Theme From Futurama - бас-таба

Печатать
Просмотров: 92
Interpreted and Arranged by Jeremy S. Warn

Original Artist Credits available at http://www.imdb.com/title/tt0149460/

Tuning= E A D B

4/4 Time Signature

|-----------------|----------------|----------------|----------------|
|-----------------|----------------|----------------|----------------|
|-----------------|----------------|----------------|----------------|
|-----------------|----------------|----------------|----------------|

5
|-------------|----------------|----------------|---------------------------|
|-------------|----------------|12/14----14-----|12/14-12-------------------|
|-------------|----------------|----------------|---------14-12-------------|
|-------------|----------------|----------------|---------------15-14-12-10-|

                  10
|-----------------|----------------|----------------|---------------------|
|-----------------|----------------|----------------|---------------------|
|-----------------|----------------|----------------|---------------------|
|-0--0--0/5-5-5--0|7--7--0/5-5-5-7-|-0--0--0/5-5-5-0|7--7--0/3-3--3--3--2-|

                                   15
|-----------------|----------------|----------------|---------------------|
|-----------------|----------------|----------------|---------------------|
|-----------------|----------------|----------------|---------------------|
|-0--0--0/5-5-5--0|7--7--0/5-5-5-7-|-0--0--0/5-5-5-0|7--7--0/3-3--3--3--2-|

                                                    20
|-----------------|----------------|----------------|---------------------|
|---------7---7--7|9---9--9/7---7/9|--------7---7--7|9---9--9-------------|
|-7---7--7--7-----|--9--------7----|7---7--7--7-----|--9------10-10-10-9--|
|---7-------------|----------------|--7-------------|---------------------|


|-----------------|----------------|----------------|---------------------|
|---------7---7--7|9---9--9/7---7/9|--------7---7--7|9---9--9-------------|
|-7---7--7--7-----|--9--------7----|7---7--7--7-----|--9------10-10-10-9--|
|---7-------------|----------------|--7-------------|---------------------|

25
|-----------------|
|-----------------|
|-----------------|
|-----------------|


|-----------------|----------------|----------------|---------------------|
|-----------------|----------------|----------------|---------------------|
|-----------------|----------------|----------------|---------------------|
|-0--0--0/5-5-5--0|7--7--0/5-5-5-7-|-0--0--0/5-5-5-0|7--7--0/3-3--3--3--2-|

30
|-----------------|----------------|----------------|---------------------|
|-----------------|----------------|----------------|---------------------|
|-----------------|----------------|----------------|---------------------|
|-0--0--0/5-5-5--0|7--7--0/5-5-5-7-|-0--0--0/5-5-5-0|7--7--0/3-3--3--3--2-|

                  35
|-----------------|----------------|----------------|---------------------|
|---------7---7--7|9---9--9/7---7/9|--------7---7--7|9---9--9-------------|
|-7---7--7--7-----|--9--------7----|7---7--7--7-----|--9------10-10-10-9--|
|---7-------------|----------------|--7-------------|---------------------|

                                   40
|-----------------|----------------|----------------|---------------------|
|---------7---7--7|9---9--9/7---7/9|--------7---7--7|9---9--9-------------|
|-7---7--7--7-----|--9--------7----|7---7--7--7-----|--9------10-10-10-9--|
|---7-------------|----------------|--7-------------|---------------------|

                                                45
|-------------|----------------|----------------|---------------------------|
|-------------|----------------|12/14----14-----|12/14-12-------------------|
|-------------|----------------|----------------|---------14-12-------------|
|-------------|----------------|----------------|---------------15-14-12-10-|


|-----------------|----------------|----------------|---------------------|
|-----------------|----------------|----------------|---------------------|
|-----------------|----------------|----------------|---------------------|
|-0--0--0/5-5-5--0|7--7--0/5-5-5-7-|-0--0--0/5-5-5-0|7--7--0/3-3--3--3--2-|

50
|-----------------|----------------|----------------|---------------------|
|-----------------|----------------|----------------|---------------------|
|-----------------|----------------|----------------|---------------------|
|-0--0--0/5-5-5--0|7--7--0/5-5-5-7-|-0--0--0/5-5-5-0|7--7--0/3-3--3--3--2-|

                  55
|-----------------|----------------|----------------|---------------------|
|---------7---7--7|9---9--9/7---7/9|--------7---7--7|9---9--9-------------|
|-7---7--7--7-----|--9--------7----|7---7--7--7-----|--9------10-10-10-9--|
|---7-------------|----------------|--7-------------|---------------------|

                                   60
|-----------------|----------------|----------------|---------------------|
|---------7---7--7|9---9--9/7---7/9|--------7---7--7|9---9--9-------------|
|-7---7--7--7-----|--9--------7----|7---7--7--7-----|--9------10-10-10-9--|
|---7-------------|----------------|--7-------------|---------------------|


|-----------------|
|-----------------|
|-----------------|
|-----------------|

                                   65
|-----------------|----------------|----------------|---------------------|
|-----------------|----------------|----------------|---------------------|
|-----------------|----------------|----------------|---------------------|
|-0--0--0/5-5-5--0|7--7--0/5-5-5-7-|-0--0--0/5-5-5-0|7--7--0/3-3--3--3--2-|

                                                    70
|-----------------|----------------|----------------|---------------------|
|-----------------|----------------|----------------|---------------------|
|-----------------|----------------|----------------|---------------------|
|-0--0--0/5-5-5--0|7--7--0/5-5-5-7-|-0--0--0/5-5-5-0|7--7--0/3-3--3--3--2-|


|-----------------|----------------|----------------|---------------------|
|---------7---7--7|9---9--9/7---7/9|--------7---7--7|9---9--9-------------|
|-7---7--7--7-----|--9--------7----|7---7--7--7-----|--9------10-10-10-9--|
|---7-------------|----------------|--7-------------|---------------------|

75
|-----------------|----------------|----------------|---------------------|
|---------7---7--7|9---9--9/7---7/9|--------7---7--7|9---9--9-------------|
|-7---7--7--7-----|--9--------7----|7---7--7--7-----|--9------10-10-10-9--|
|---7-------------|----------------|--7-------------|---------------------|
Добавлено: 19.08.2013
Другие материалы по этой песне:
  • Аккорды и текст

Страница создана 19.08.2013
http://primanota.ru/misc-unsigned-bands/christopher-tyng-theme-from-futurama-chords.htm
Привет, Гость.
Предлагаем пройти революционный курс по гитаре.
Подарок от PrimaNota.Ru, забирай!