PrimaNota.ru - самый крупный в мире бесплатный архив песенных текстов, аккордов, табулатур и нот


Misc Unsigned Bands - Bored With Four - Asterisk - бас-таба

Регистрация Запомнить меня
Войти через:  Facebook Google Twitter Vk Yandex Mail.ru

Misc Unsigned Bands - Bored With Four - Asterisk - бас-таба

Печатать
Просмотров: 45
----------------------------------------------------------------------

                      Asterisk - Bored With Four

----------------------------------------------------------------------

[Verse 1]

  1 + 2 + 3 + 4 +  1 + 2 + 3 + 4 +  1 + 2 + 3 + 4 +  1 + 2 + 3 + 4 +
G|----------------|----------------|----------------|----------------|
D|----------------|----------------|----------------|----------------|
A|4-----4---------|4-----4---------|----------------|----------------|
E|----------------|----------------|2-----2---------|2-----2---------|

  1 + 2 + 3 + 4 +  1 + 2 + 3 + 4 +  1 + 2 + 3 + 4 +  1 + 2 + 3 + 4 +
G|----------------|----------------|----------------|----------------|
D|----------------|----------------|----------------|----3-----------|
A|----------------|----------------|4-----4---------|4-6---4---------|
E|1-----1---------|2-----2---------|--------------46|----------------|

[Verse 2]
 
  1 + 2 + 3 + 4 +  1 + 2 + 3 + 4 +  1 + 2 + 3 + 4 +  1 + 2 + 3 + 4 +
G|----------------|----------------|----------------|----------------|
D|----------------|----------------|----------------|----------------|
A|4-----4---------|4-----4---------|----------------|----------------|
E|----------------|----------------|2-----2---------|2-----2---------|

  1 + 2 + 3 + 4 +  1 + 2 + 3 + 4 +  1 + 2 + 3 + 4 +  1 + 2 + 3 + 4 +
G|----------------|----------------|----------------|----------------|
D|-----------1----|----------------|----------------|----3-----------|
A|-------0-3------|----------------|4-----4---------|4-6---4---------|
E|1----1----------|--2--2--2-------|--------------46|----------------|

[Pre-Chorus]

  1 + 2 + 3 + 4 +  1 + 2 + 3 + 4 +  1 + 2 + 3 + 4 +  1 + 2 + 3 + 4 +
G|----------------|----------------|----------------|----------------|
D|----------------|----------------|----------------|----------------|
A|----------------|4-----4---------|----------------|4-----4-----3---|
E|4-----4-2-----2-|----------------|4-----4-2-----2-|----------------|

[Chorus]

  1 + 2 + 3 + 4 +  1 + 2 + 3 + 4 +  1 + 2 + 3 + 4 +  1 + 2 + 3 + 4 +
G|----------------|----------------|----------------|----------------|
D|----------------|----------------|--------------4-|----------------|
A|1-1-1-1-1-1-1-13|4-4-4-4-4-4-4-4-|---------------4|----------------|
E|----------------|----------------|2-2-2-2-2-2-2---|2-2-2-2-2-2-2-2-|

  1 + 2 + 3 + 4 +  1 + 2 + 3 + 4 +  1 + 2 + 3 + 4 +  1 + 2 + 3 + 4 +
G|----------------|----------------|----------------|----------------|
D|----------------|----------------|----------------|4---------------|
A|1-1-1-1-1-1-1-13|4-4-4-4-4-4-4-4-|--------------46|----------------|
E|----------------|----------------|2-2-2-2-2-2-2---|--2-2-2-2-2-2-2-|

  1 + 2 + 3 + 4 +  1 + 2 + 3 + 4 +  
G|----------------|----------------|
D|----------------|----------------|
A|4~~~------------|----------4-4---|
E|----------------|----------------|

[Verse 3]

  1 + 2 + 3 + 4 +  1 + 2 + 3 + 4 +  1 + 2 + 3 + 4 +  1 + 2 + 3 + 4 +
G|----------------|----------------|----------------|----------------|
D|----------3-----|-----3--6-4-3---|----------------|----------------|
A|4----6-------4--|--6-----------6\|----------------|----1-----------|
E|----------------|----------------|--2--2--2-----1-|2-----2---------|

  1 + 2 + 3 + 4 +  1 + 2 + 3 + 4 +  1 + 2 + 3 + 4 +  1 + 2 + 3 + 4 +
G|----------------|----------------|----------------|------------3--5|
D|-----------1----|----------------|----------------|----3-4--6------|
A|-------0-3------|----------------|4-----4---------|4-6-------------|
E|1----1----------|--2--2--2-------|--------------46|----------------|

[Verse 4]

  1 + 2 + 3 + 4 +  1 + 2 + 3 + 4 +  1 + 2 + 3 + 4 +  1 + 2 + 3 + 4 +
G|--6--8--5---6--5|3---------------|----------------|----------------|
D|----------------|---66--4-3------|----------------|----------------|
A|----------------|-----------6-4\-|----------------|----------------|
E|----------------|----------------|--2--2--2-------|--2--2--2-------|

  1 + 2 + 3 + 4 +  1 + 2 + 3 + 4 +  1 + 2 + 3 + 4 +  1 + 2 + 3 + 4 +
G|----------------|----------------|----------------|----------------|
D|----------------|----------------|----------------|----3-----------|
A|----------------|----------------|4-----4---------|4-6---4---------|
E|1-----1-----1---|--2--2--2-------|--------------46|----------------|

[Pre-Chorus]

  1 + 2 + 3 + 4 +  1 + 2 + 3 + 4 +  1 + 2 + 3 + 4 +  1 + 2 + 3 + 4 +
G|----------------|----------------|----------------|----------------|
D|----------------|----------------|----------------|----------------|
A|----------------|4-----4---------|----------------|4-----4-----3---|
E|4-----4-2-----2-|----------------|4-----4-2-----2-|----------------|

[Chorus/Outro]

  1 + 2 + 3 + 4 +  1 + 2 + 3 + 4 +  1 + 2 + 3 + 4 +  1 + 2 + 3 + 4 +
G|----------------|----------------|----------------|----------------|
D|----------------|----------------|--------------4-|----------------|
A|1-1-1-1-1-1-1-13|4-4-4-4-4-4-4-4-|---------------4|----------------|
E|----------------|----------------|2-2-2-2-2-2-2---|2-2-2-2-2-2-2-4-|

  1 + 2 + 3 + 4 +  1 + 2 + 3 + 4 +  1 + 2 + 3 + 4 +  1 + 2 + 3 + 4 +
G|----------------|----------------|----------------|----------------|
D|----------------|----------------|----------------|4---------------|
A|1-1-1-1-1-1-1-1-|4-4-4-4-4-4-4---|--------------46|----------------|
E|----------------|--------------4-|2-2-2-2-2-2-2---|--2-2-2-2-2-2-24|

  1 + 2 + 3 + 4 +  1 + 2 + 3 + 4 +  1 + 2 + 3 + 4 +  1 + 2 + 3 + 4 +
G|----------------|----------------|----------------|----------------|
D|----------------|----------------|--------------4-|----------------|
A|1-1-1-1-1-1-1-13|4-4-4-4-4-4-4-4-|---------------4|----------------|
E|----------------|----------------|2-2-2-2-2-2-2---|2-2-2-2-2-2-2-4-|

  1 + 2 + 3 + 4 +  1 + 2 + 3 + 4 +  1 + 2 + 3 + 4 +  1 + 2 + 3 + 4 +
G|----------------|----------------|----------------|----------------|
D|----------------|----------------|----------------|4---------------|
A|1-1-1-1-1-1-1-13|4-4-4-4-4-4-4-4-|--------------46|--6-64----------|
E|----------------|----------------|2-2-2-2-2-2-2---|------6-2-2-222-|

  1 + 2 + 3 + 4 +  1 + 2 + 3 + 4 +  1 + 2 + 3 + 4 +  1 + 2 + 3 + 4 +
G|----------------|----------------|----------------|----------------|
D|---------------3|--------6-4-3---|----------------|----------------|
A|---------4--6---|--4----------6--|----------------|----------------|
E|6-----6---------|---------------2|-----2-------2--|-----2----2--4--|

  1 + 2 + 3 + 4 +  1 + 2 + 3 + 4 +  1 + 2 + 3 + 4 +  1 + 2 + 3 + 4 +
G|----------------|----------------|----------------|----------------|
D|---------------3|--------6-4-3---|----------------|----------------|
A|---------4--6---|--4----------6--|----------------|----------------|
E|6-----6---------|---------------2|-----2-------2--|-----2----2--4--|

  1 + 2 + 3 + 4 +  1 + 2 + 3 + 4 +  1 + 2 + 3 + 4 +  1 + 2 + 3 + 4 +
G|----------------|----------------|----------------|----------------|
D|---------------3|--------6-4-3---|----------------|----------------|
A|---------4--6---|--4----------6--|----------------|----------------|
E|6-----6---------|---------------2|-----2-------2--|-----2-------2--|

Добавлено: 05.08.2013
Другие материалы по этой песне:
  • Аккорды и текст

Страница создана 05.08.2013
http://primanota.ru/misc-unsigned-bands/bored-with-four-asterisk-chords.htm
Привет, Гость.
Предлагаем пройти революционный курс по гитаре.
Подарок от PrimaNota.Ru, забирай!