PrimaNota.ru - самый крупный в мире бесплатный архив песенных текстов, аккордов, табулатур и нот


Misc Unsigned Bands - August Oster - Thats All - таба, видео

Регистрация Запомнить меня
Войти через:  Facebook Google Twitter Vk Yandex Mail.ru

Misc Unsigned Bands - August Oster - Thats All - таба, видео

Печатать
Просмотров: 48
-----------------------------------------------------------------------------
                         That's All - August Oster
-----------------------------------------------------------------------------

Tabbed by: August Oster
Email: osterhoutben@gmail.com

Tuning: Open C(CGCGCE)

**************************
Legend
h = hammer on
p = pull off
/ = slide up
\ = slide down
~ = vibrato
**************************


e|---------------------------------|---------------------------------|
C|---------------------------------|---------------------------------|
G|--7-------7-------7-------7---7--|\-4-------4-------4-------4---4--|
C|--7-------7-------7-------7---7--|\-4-------4-------4-------4---4--|
G|--5-------5-------5-------5---5--|\-2-------2-------2-------2---2--|
C|--0-------0-------0-------0---0--|--0-------0-------0-------0---0--|


e|---------------------------------|---------------------------------|
C|---------------------------------|---------------------------------|
G|/-9-------9-------9-------9---9--|\-2-------2-------2-------2---2--|
C|/-9-------9-------9-------9---9--|\-2-------2-------2-------2---2--|
G|/-7-------7-------7-------7---7--|--0-------0-------0-------0---0--|
C|--0-------0-------0-------0---0--|--0-------0-------0-------0---0--|


e|-----|
C|-----|
G|--0--|
C|--0--|
G|--0--|
C|--0--|


e|--------------------------------|--------------------------------|
C|----------0---------------0-----|----------0---------------0-----|
G|--------------7-\-------------4-|/-------------9-/-------------2-|
C|----------7-----\---------4-----|/---------9-----/---------2-----|
G|--5-------------\-2-------------|/-7---------------0-------------|
C|--------------------------------|--------------------------------|


e|--------------------------------|-----|
C|--------------------------------|-----|
G|--------------0-----------------|-----|
C|------4---------------0---------|-----|
G|------------------4----/--9~----|--7~-|
C|--2-------4---------------------|-----|



e|--------------------------------|--------------------------------|
C|----------0---------------0-----|----------0---------------0-----|
G|--------------7-\-------------4-|/-------------9-\-------------2-|
C|----------7-----\---------4-----|/---------9-----\---------2-----|
G|--5-------------\-2-------------|/-7---------------0-------------|
C|--------------------------------|--------------------------------|


e|--------------------------------|-----|
C|--------------------------------|-----|
G|--------------0-----------------|-----|
C|------4---------------0---------|-----|
G|------------------4----/--9~----|--7~-|
C|--2-------4---------------------|-----|


e|------------------------0-------|---------------------------------|
C|------0-------------------------|------0--------------------------|
G|----------------7---------------|\---------------4-------4--------|
C|------------7-------7-------7---|\-----------4-------4-------4----|
G|------5-------5-------5-------5-|\-----2-------2-------2-------2--|
C|--0-------0-------0-------0-----|--0-------0-------0-------0------|


e|------------------------0-------|---------------------------------|
C|------0-------------------------|------0--------------------------|
G|-/--------------7---------------|\---------------4-------4--------|
C|-/----------7-------7-------7---|\-----------4-------4-------4----|
G|-/----5-------5-------5-------5-|\-----2-------2-------2-------2--|
C|--0-------0-------0-------0-----|--0-------0-------0-------0------|


e|--------------------------------|------------------------0--------|
C|--------------------------------|------0--------------------------|
G|\-----2---------2-------2-------|/---------------7----------------|
C|\-----------2-------2-------2---|/-----------7-------7-------7----|
G|------0-------0-------0-------0-|------5-------5-------5-------5--|
C|--0-------0-------0-------0-----|--0-------0-------0-------0------|


e|--------------------------------|------------------------0--------|
C|------0-------------------------|------0--------------------------|
G|----------------4-------4-------|-/--------------7----------------|
C|------------4-------4-------4---|-/----------7-------7-------7----|
G|------2-------2-------2-------2-|-/----5-------5-------5-------5--|
C|--0-------0-------0-------0-----|--0-------0-------0-------0------|


e|--------------------------------|---------------------------------|
C|------0-------------------------|---------------------------------|
G|\---------------4-------4-------|\-----2---------2-------2-------2|
C|\-----------4-------4-------4---|\-----------2-------2-------2----|
G|\-----2-------2-------2-------2-|------0-------0-------0-------0--|
C|--0-------0-------0-------0-----|--0-------0-------0-------0------|


e|--------------------------------|------------------3--------------|
C|--------------------------------|------2p0------------------------|
G|--------2-------2-------2------0|------------0--------------------|
C|----2-------2-------2-------2---|------0-------0-------0-------0--|
G|------0-------0-------0-------0-|---------------------------------|
C|--0-------0-------0-------0-----|--0-------0-------0-------0------|


e|------------------3-----5-----3-|------------------3--------------|
C|------2p0-----------------------|------2p0------------------------|
G|------------0-------------------|------------0--------------------|
C|------0-------0-------0-------0-|------0-------0-------0-------0--|
G|--------------------------------|---------------------------------|
C|--0-------0-------0-------0-----|--0-------0-------0-------0------|


e|------------------5p3p0-----------|-----------------------------------|
C|------2p0-------------------------|------0h4h5/7----------------------|
G|------------0---------------------|--------------------------------9--|
C|------0-------0---------0-------0-|------0---------0-------0-------0--|
G|----------------------------------|-----------------------------------|
C|--0-------0-------0---------0-----|--0---------0-------0-------0------|


e|-------------------------|
C|-------------------------|
G|----7-----4-----5--------|
C|------0-------0-------0--|
G|-------------------------|
C|--0-------0-------0------|


e|---------------------------|---------------------------------|
C|------0h4h5/7--------------|---------------------------------|
G|---------------------------|------9-----7-----10----4-----0--|
C|------0---------0-------0--|------0-------0-------0-------0--|
G|---------------------------|---------------------------------|
C|--0---------0-------0------|--0-------0-------0-------0------|


e|-----------------------------------|---------------------------------|
C|--------------0h4h5/7--------------|---------------------------------|
G|-----------------------------------|------9-----7-----4-----5--------|
C|------0-------0---------0-------0--|------0-------0-------0-------0--|
G|-----------------------------------|---------------------------------|
C|--0-------0---------0-------0------|--0-------0-------0-------0------|


e|-----------------------------------|-------------------------|
C|------0h4h5/7----------------------|-------------------------|
G|--------------------------------9--|----7-----10----4-----0--|
C|------0---------0-------0-------0--|------0-------0-------0--|
G|-----------------------------------|-------------------------|
C|--0---------0-------0-------0------|--0-------0-------0------|


e|-----------------|
C|-----------------|
G|-----------------|
C|------0-------0--|
G|-----------------|
C|--0-------0------|



e|---------------------------------|---------------------------------|
C|--------5/-----\2------/4-------0|--------5/-----\2------/4-------0|
G|----0-------0-------0-------0----|----0-------0-------0-------0----|
C|------0-------0-------0-------0--|------0-------0-------0-------0--|
G|--5------/9----\--2----/--4------|--0------/9----\--2----/--4------|
C|---------------------------------|---------------------------------|


e|---------------------------------|---------------------------------|
C|--------5/-----\2------/4-------0|--------5/-----\2------/4-------0|
G|----0-------0-------0-------0----|----0-------0-------0-------0----|
C|------0-------0-------0-------0--|------0-------0-------0-------0--|
G|--0------/9----\--2----/--4------|--0------/9----\--2----/--4------|
C|---------------------------------|---------------------------------|


e|---------------------------------|---------------------------------|
C|---------------------------------|---------------------------------|
G|---------------------------------|---------------------------------|
C|--------0-------0-------0-------5|--------4----/--9----\--2-------5|
G|----0-0-----0-0-----0-0-----0-0--|----0-0-----0-0-----0-0-----0-0--|
C|--0-------0-------0-------0------|--0-------0-------0-------0------|


e|---------------------------|---------------------------------|
C|---------------------------|---------------------------------|
G|------------------------0--|----------------0----------------|
C|--------4-------0----------|--------0---------------5-------4|
G|----0-0-----0-0-----0-0----|----0-0-----0-0-----0-0-----0-0--|
C|--0-------0-------0--------|--0-------0-------0-------0------|


e|---------------------------------|---------------------------------|
C|---------------------------------|---------------------------------|
G|---------------------------------|----------------0---------------0|
C|-----/--9----\--2-------5-------4|--------0---------------0--------|
G|----0-0-----0-0-----0-0-----0-0--|----0-0-----0-0-----0-0-----0-0--|
C|--0-------0-------0-------0------|--0-------0-------0-------0------|


e|---------------------------------|---------------------------------|
C|---------------------------------|---------------------------------|
G|--------5-------4-------5-------7|--------5-------4-------0--------|
C|---------------------------------|--------------------------------0|
G|----5-5-----5-5-----5-5-----5-5--|----5-5-----5-5-----5-5-----5-5--|
C|--0-------0-------0-------0------|--0-------0-------0-------0------|


e|---------------------------------|---------------------------------|
C|---------------------------------|---------------------------------|
G|--------0---------------5-------4|--------5-------7-------5-------4|
C|----------------0----------------|---------------------------------|
G|----5-5-----5-5-----5-5-----5-5--|----5-5-----5-5-----5-5-----5-5--|
C|--0-------0-------0-------0------|--0-------0-------0-------0------|


e|---------------------------------|---------------------------------|
C|---------------------------------|---------------------------------|
G|--------0---------------0--------|--------5-/----\2------/4-------0|
C|----------------0---------------0|---------------------------------|
G|----5-5-----5-5-----5-5-----5-5--|----5-5---/-9-9\----2-2/----4-4--|
C|--0-------0-------0-------0------|--0-------0-------0-------0------|


e|---------------------------------|---------------------------------|
C|---------------------------------|---------------------------------|
G|--------5-/----\2------/4-------0|--------5-/----\2------/4-------0|
C|---------------------------------|---------------------------------|
G|----0-0---/-9-9\----2-2/----4-4--|----0-0---/-9-9\----2-2/----4-4--|
C|--0-------0-------0-------0------|--0-------0-------0-------0------|

                                     ....slow it down till the pause.|
e|---------------------------------|---------------------------------|
C|---------------------------------|---------------------------------|
G|--------5-/----\2------/4-------0|----------------0---------------0|
C|---------------------------------|--------0---------------0--------|
G|----0-0---/-9-9\----2-2/----4-4--|----0-0-----0-0-----0-0-----0-0--|
C|--0-------0-------0-------0------|--0-------0-------0-------0------|

                           ...pause|
e|---------------------------------|
C|---------------------------------|
G|----------------0---------------0|
C|--------0---------------0--------|
G|----0-0-----0-0-----0-0-----0-0--|
C|--0-------0-------0-------0------|


e|--------------------------------|--------------------------------|
C|----------0---------------0-----|----------0---------------0-----|
G|--------------7-\-------------4-|/-------------9-\-------------2-|
C|----------7-----\---------4-----|/---------9-----\---------2-----|
G|--5-------------\-2-------------|/-7---------------0-------------|
C|--------------------------------|--------------------------------|

                     ...slow it down to to the end......|
e|--------------------------------|------------------0--|
C|--------------------------------|------------------0--|
G|--------------0-----------------|------------------7--|
C|------4---------------0---------|------------------7--|
G|------------------4----/--9~----|--7~------5~------5--|
C|--2-------4---------------------|------------------0--|





******************************************************************
References for the Song:
August Oster on Facebook:
https://www.facebook.com/AugustOstermusicandart
August Oster on icompositions:
http://www.icompositions.com/artists/August_Oster/
August Oster on Soundcloud:
https://soundcloud.com/august-oster
August Oster on YouTube:
https://www.youtube.com/channel/UChacbzLpuUUVIod_Z01Gy5g
*******************************************************************
Добавлено: 08.12.2013
Другие материалы по этой песне:
  • Аккорды и текст

Страница создана 08.12.2013
http://primanota.ru/misc-unsigned-bands/august-oster-thats-all-chords.htm
Привет, Гость.
Предлагаем пройти революционный курс по гитаре.
Подарок от PrimaNota.Ru, забирай!