PrimaNota.ru - самый крупный в мире бесплатный архив песенных текстов, аккордов, табулатур и нот


Misc Unsigned Bands - August Oster - Three Dirty Feet - таба, видео

Регистрация Запомнить меня
Войти через:  Facebook Google Twitter Vk Yandex Mail.ru

Misc Unsigned Bands - August Oster - Three Dirty Feet - таба, видео

Печатать
Просмотров: 36
-----------------------------------------------------------------------------
                      Three Dirty Feet - August Oster
-----------------------------------------------------------------------------

Tabbed By: August Oster
Email: osterhoutben@gmail.com

Tuning: Open D (DADF#AD)

**************************
Legend
h = hammer on
p = pull off
/ = slide up
\ = slide down
b = bend
+ = harmonic
**************************


d |----------------------0h2h4-----|----------------------0h2h4-----|
A |-----5p0------0-----------------|-----5p0------0-----------------|
F#|----------5p0-----0-------------|----------5p0-----0-------------|
D |-----0------0-------0--------0--|-----0------0-------0--------0--|
A |--------------------------------|--------------------------------|
D |--0-----0-------0---------0-----|--0-----0-------0---------0-----|


d |------------------------0--------|----------------------0h2h4--/--|
A |------5p0-------0---------------0|-----5p0------0-----------------|
F#|------------5p0-----0-------0----|----------5p0-----0-------------|
D |------0-------0-------0-------0--|-----0------0-------0--------0--|
A |---------------------------------|--------------------------------|
D |--0-------0-------0-------0------|--0-----0-------0---------0-----|


d |------7---------------7----------|-\----5---------------5----------|
A |----------------0---------------0|----------------0---------------0|
F#|------------0---------------0----|------------0---------------0----|
D |--------------7---------------7--|-\----5---------------5----------|
A |------0---------------0----------|--------------0---------------0--|
D |--0-------0-------0-------0------|--0-------0-------0-------0------|


d |-\----2---------------2----------|------0---------------0----------|
A |----------------0---------------0|----------------0---------------0|
F#|------------0---------------0----|------------0---------------0----|
D |-\------------2---------------2--|------0---------------0----------|
A |------0---------------0----------|--------------0---------------0--|
D |--0-------0-------0-------0------|--0-------0-------0-------0------|


d |---------------------------------|---------------------------------|
A |------5p0-----2------------------|------5p0-----2------------------|
F#|------5p0-----0------------------|------5p0-----0------------------|
D |------0-------0-------0-------0--|------0-------0-------0-------0--|
A |------0-------2------------------|------0-------2------------------|
D |--0---0---0---0---0-------0------|--0---0---0---0---0-------0------|


d |------------------------2--------|-----------------|
A |------2p0---------4b--------4b--0|-----------------|
F#|------------0--------------------|-----------------|
D |--------------0-------0-------0--|------0-------0--|
A |------2p0------------------------|-----------------|
D |--0-------0-------0-------0------|--0-------0------|


d |------------------------2--------|-----------------|
A |------2p0---------4b--------4b--0|-----------------|
F#|------------0--------------------|-----------------|
D |--------------0-------0-------0--|------0-------0--|
A |------2p0------------------------|-----------------|
D |--0-------0-------0-------0------|--0-------0------|


d |------------------------2--------|-----12+------------2-----------12+|
A |------2p0---------4b--------4b--0|-----12+------4b--------4b--0---12+|
F#|------------0--------------------|-----12+------------------------12+|
D |--------------0-------0-------0--|-----12+------0-------0-------0-12+|
A |------2p0------------------------|-----12+------------------------12+|
D |--0-------0-------0-------0------|--0--12+--0-------0-------0-----12+|


d |----------------0----------------|----------------0----------------|
A |------7-----------------0--------|------7-----------------0--------|
F#|------------5-------5-------5----|------------5-------5-------5----|
D |------7-------7-------7-------7--|------7-------7-------7-------7--|
A |---------------------------------|---------------------------------|
D |--0-------0-------0-------0------|--0-------0-------0-------0------|


d |----------------0----------------|--------0------------------------|
A |------4-------------------------4|----------------4-------0-------0|
F#|------------0---------------0----|----0-------0-------0-------0----|
D |-\----4-------0---------------4--|------4-------4-------4-------0--|
A |---------------------------------|---------------------------------|
D |--0-------0-------0---2---4------|--4-------4-------4-------4------|


d |----------------------0h2h4-----|----------------------0h2h4-----|
A |-----5p0------0-----------------|-----5p0------0-----------------|
F#|----------5p0-----0-------------|----------5p0-----0-------------|
D |-----0------0-------0--------0--|-----0------0-------0--------0--|
A |--------------------------------|--------------------------------|
D |--0-----0-------0---------0-----|--0-----0-------0---------0-----|


d |------------------------0--------|----------------------0h2h4-----|
A |------5p0-------0---------------0|-----5p0------0-----------------|
F#|------------5p0-----0-------0----|----------5p0-----0-------------|
D |------0-------0-------0-------0--|-----0------0-------0--------0--|
A |---------------------------------|--------------------------------|
D |--0-------0-------0-------0------|--0-----0-------0---------0-----|


d |------------------------0--------|--------------------------------|
A |--------------4----------\----2--|-------0-----0------------------|
F#|--------------------0------------|---0----------------------------|
D |-----0h2h4----4-------4--\----2--|-----0-------0-------0-------0--|
A |---------------------------------|--------------------------------|
D |--0-------0-------0-------0------|-0-------0-------0-------0------|


d |----------0h4h5--------------|------0h4h5--------------|
A |----------------0h4h5--------|------------0h4h5--------|
F#|----------------------0h3p0--|------------------0h3p0--|
D |------0----------------------|------0------------------|
A |-----------------------------|-------------------------|
D |--0-------0------------------|--0----------------------|


d |------0h5h7--------------|------0h5h7--------------|
A |------------0h5h7--------|------------0h5h7--------|
F#|------------------0h2h3--|------------------0h2h3--|
D |------0------------------|------0------------------|
A |-------------------------|-------------------------|
D |--0----------------------|--0----------------------|


d |------0h4h5--------------|------0h4h5--------------|
A |------------0h4h5--------|------------0h4h5--------|
F#|------------------0h3p0--|------------------0h3p0--|
D |------0------------------|------0------------------|
A |-------------------------|-------------------------|
D |--0----------------------|--0----------------------|


d |------0h5h7--------------|------0h5h7--------------|
A |------------0h5h7--------|------------0h5h7--------|
F#|------------------0h2h3--|------------------0h2h3--|
D |------0------------------|------0------------------|
A |-------------------------|-------------------------|
D |--0----------------------|--0----------------------|

                                        ...pause|
d |---------------------------------|-----------|
A |------2---------------2/4--------|------4/9--|
F#|----------------0---------------0|-----------|
D |------------0-0-------------0-0--|-----------|
A |------2---------------2/4--------|------4/9--|
D |--0-------0-------0-------0------|--0--------|


d |--------------------------0------|----------0------|
A |--9-----\-4-----\-2--------------|--2--------------|
F#|------0-------0-------0-------0--|------0-------0--|
D |---------------------------------|-----------------|
A |--9-----\-4-----\-2--------------|--2--------------|
D |--------------------------0------|----------0------|


d |--------------------------0------|----------0------|
A |--9-----\-4-----\-2--------------|--2--------------|
F#|------0-------0-------0-------0--|------0-------0--|
D |---------------------------------|-----------------|
A |--9-----\-4-----\-2--------------|--2--------------|
D |--------------------------0------|----------0------|


d |----------0---------------0------|----------0---------------0------|
A |-/5---------------5--------------|-/7---------------7--------------|
F#|------0-------0-------0-------0--|------0-------0-------0-------0--|
D |---------------------------------|---------------------------------|
A |-/5---------------5--------------|-/7---------------7--------------|
D |----------0---------------0------|----------0---------------0------|


d |----------0---------------0------|----------0------|
A |-\4---------------4--------------|--0--------------|
F#|------0-------0-------0-------0--|------0-------0--|
D |---------------------------------|-----------------|
A |-\4---------------4--------------|--0--------------|
D |----------0---------------0------|----------0------|


d |--------------------------0------|----------0------|
A |--9-----\-4-----\-2--------------|--2--------------|
F#|------0-------0-------0-------0--|------0-------0--|
D |---------------------------------|-----------------|
A |--9-----\-4-----\-2--------------|--2--------------|
D |--------------------------0------|----------0------|


d |--------------------------0------|----------0------|
A |--9-----\-4-----\-2--------------|--2--------------|
F#|------0-------0-------0-------0--|------0-------0--|
D |---------------------------------|-----------------|
A |--9-----\-4-----\-2--------------|--2--------------|
D |--------------------------0------|----------0------|


d |----------0---------------0------|----------0---------------0------|
A |-/5---------------5--------------|-/7---------------7--------------|
F#|------0-------0-------0-------0--|------0-------0-------0-------0--|
D |---------------------------------|---------------------------------|
A |-/5---------------5--------------|-/7---------------7--------------|
D |----------0---------------0------|----------0---------------0------|


d |----------0---------------0------|----------0--|
A |-\4---------------4--------------|--0----------|
F#|------0-------0-------0-------0--|------0------|
D |---------------------------------|-------------|
A |-\4---------------4--------------|--0----------|
D |----------0---------------0------|----------0--|


d |-----------------------------|---------------------------------|
A |--5p0-----2------------------|------5p0-----2------------------|
F#|--5p0-----0------------------|------5p0-----0------------------|
D |--0-------0-------0-------0--|------0-------0-------0-------0--|
A |--0-------2------------------|------0-------2------------------|
D |--0---0---0---0-------0------|--0---0---0---0---0-------0------|


d |----------------------0h2h4-----|----------------------0h2h4-----|
A |-----5p0------0-----------------|-----5p0------0-----------------|
F#|----------5p0-----0-------------|----------5p0-----0-------------|
D |-----0------0-------0--------0--|-----0------0-------0--------0--|
A |--------------------------------|--------------------------------|
D |--0-----0-------0---------0-----|--0-----0-------0---------0-----|


d |------------------------0--------|----------------------0h2h4------|
A |------5p0-------0---------------0|-----5p0------0------------------|
F#|------------5p0-----0-------0----|----------5p0-----0--------------|
D |------0-------0-------0-------0--|-----0------0-------0---------0--|
A |---------------------------------|---------------------------------|
D |--0-------0-------0-------0------|--0-----0-------0---------0------|


d |------2-----4-----7--------------|
A |------4-----5-----5--------------|
F#|---------------------------------|
D |------0-------0-------0-------0--|
A |---------------------------------|
D |--0-------0-------0-------0------|


d |------------7-----5-----------0--|-----------------|
A |------9b----------------7--------|----2-----0------|
F#|---------------------------------|-----------------|
D |------0-------0-------0-------0--|------0-------0--|
A |---------------------------------|-----------------|
D |--0-------0-------0-------0------|--0-------0------|


d |------------7-----5-----------0--|----------------------------2-----|
A |------9b----------------7--------|----2-----0-----------4b--------4b|
F#|---------------------------------|----------------------------------|
D |------0-------0-------0-------0--|------0-------0-------0-------0---|
A |---------------------------------|----------------------------------|
D |--0-------0-------0-------0------|--0-------0-------0-------0-------|


d |----------12+---------------2-----|----------12+----|
A |----0-----12+---------4b--------4b|----0-----12+----|
F#|----------12+---------------------|----------12+----|
D |------0---12+---------0-------0---|------0---12+----|
A |----------12+---------------------|----------12+----|
D |--0-------12+-----0-------0-------|--0-------12+----|


d |------------7-----5-----------0--|-----------------|
A |------9b----------------7--------|----2-----0------|
F#|---------------------------------|-----------------|
D |------0-------0-------0-------0--|------0-------0--|
A |---------------------------------|-----------------|
D |--0-------0-------0-------0------|--0-------0------|


d |------------7-----5-----------0--|-----------------|
A |------9b----------------7--------|----2-----0------|
F#|---------------------------------|-----------------|
D |------0-------0-------0-------0--|------0-------0--|
A |---------------------------------|-----------------|
D |--0-------0-------0-------0------|--0-------0------|

                              ...speed up faster and faster till pause|
d |------------------------2--------|------------------------2--------|
A |------2p0---------4b--------4b--0|------2p0---------4b--------4b--0|
F#|------------0--------------------|------------0--------------------|
D |--------------0-------0-------0--|--------------0-------0-------0--|
A |------2p0------------------------|------2p0------------------------|
D |--0-------0-------0-------0------|--0-------0-------0-------0------|


d |------------------------2--------|------------------------2--------|
A |------2p0---------4b--------4b--0|------2p0---------4b--------4b--0|
F#|------------0--------------------|------------0--------------------|
D |--------------0-------0-------0--|--------------0-------0-------0--|
A |------2p0------------------------|------2p0------------------------|
D |--0-------0-------0-------0------|--0-------0-------0-------0------|

                                                                ...pause|
d |------------2-------------------2|--------------------2-----------12+|
A |------4b--------4b--0-----4b-----|----4b--0-----4b--------4b--0---12+|
F#|---------------------------------|--------------------------------12+|
D |------0-------0-------0-------0--|------0-------0-------0-------0-12+|
A |---------------------------------|--------------------------------12+|
D |--0-------0-------0-------0------|--0-------0-------0-------0-----12+|


d |---------------------------------|---------------------------------|
A |------5p0-----2------------------|------5p0-----2------------------|
F#|------5p0-----0------------------|------5p0-----0------------------|
D |------0-------0-------0-------0--|------0-------0-------0-------0--|
A |------0-------2------------------|------0-------2------------------|
D |--0---0---0---0---0-------0------|--0---0---0---0---0-------0------|

                           ...speed up to the finish|
d |------------------------0h2h4------|--2-------0--|
A |------5p0-------0------------------|-------------|
F#|------------5p0-----0--------------|-------------|
D |------0-------0-------0---------0--|------0------|
A |-----------------------------------|-------------|
D |--0-------0-------0---------0------|--0-------0--|




***************************************************************
References for song:
August Oster on Facebook:
https://www.facebook.com/AugustOstermusicandart
August Oster on icompositions:
http://www.icompositions.com/artists/August_Oster/
August Oster on Soundcloud:
https://soundcloud.com/august-oster
August Oster on YouTube:
https://www.youtube.com/channel/UChacbzLpuUUVIod_Z01Gy5g
***************************************************************

Добавлено: 01.10.2013
Другие материалы по этой песне:
  • Аккорды и текст

Страница создана 01.10.2013
http://primanota.ru/misc-unsigned-bands/august-oster-three-dirty-feet-chords.htm
Привет, Гость.
Предлагаем пройти революционный курс по гитаре.
Подарок от PrimaNota.Ru, забирай!