PrimaNota.ru - самый крупный в мире бесплатный архив песенных текстов, аккордов, табулатур и нот


Misc Unsigned Bands - August Oster - Wagon Theft - таба, видео

Регистрация Запомнить меня
Войти через:  Facebook Google Twitter Vk Yandex Mail.ru

Misc Unsigned Bands - August Oster - Wagon Theft - таба, видео

Печатать
Просмотров: 41
Уроки эстрадного вокала в Санкт-Петербурге
-----------------------------------------------------------------------------
                         Wagon Theft - August Oster
-----------------------------------------------------------------------------

Tabbed by: August Oster
Email: Osterhoutben@gmail.com

Tuning: Open C (CGCGCE)

*********************************************
Legend
h = hammer on
p = pull off
/ = slide up
\ = slide down
b = bend
+ = harmonic
x = harmonic over sound hole
*********************************************


e|---------------------------------|---------------------------------|
C|---------------------------------|---------------------------------|
G|------7b--\-----5-----5---/-----7|------7b--\-----5-----5---------0|
C|------------0---------------0----|------------0---------------0----|
G|------7b--\---5-------5---/---7--|------7b--\---5-------5-------0--|
C|--0-------0-------0-------0------|--0-------0-------0-------0------|


e|---------------------------------|---------------------------------|
C|---------------------------------|---------------------------------|
G|------------------------0--------|------------------------0--------|
C|------5b--------0---------------0|------5b--------0---------------0|
G|------5b----0-0-----0-0-----0-0--|------5b----0-0-----0-0-----0-0--|
C|--0-------0-------0-------0------|--0-------0-------0-------0------|


e|---------------------------------|---------------------------------|
C|---------------------------------|---------------------------------|
G|------7b--\-----5-----5---/-----7|------7b--\-----5-----5---------0|
C|------------0---------------0----|------------0---------------0----|
G|------7b--\---5-------5---/---7--|------7b--\---5-------5-------0--|
C|--0-------0-------0-------0------|--0-------0-------0-------0------|


e|------------------12+-7+--12+-7+-|------------------12+-7+--12+-7+-|
C|------------------12+-7+--12+-7+-|------------------12+-7+--12+-7+-|
G|------------------12+-7+--12+-7+-|------------------12+-7+--12+-7+-|
C|------5b--------0-12+-7+--12+-7+-|------5b--------0-12+-7+--12+-7+-|
G|------5b----0-0---12+-7+--12+-7+-|------5b----0-0---12+-7+--12+-7+-|
C|--0-------0-------12+-7+--12+-7+-|--0-------0-------12+-7+--12+-7+-|


e|-----------------|
C|-----------------|
G|-----------------|
C|------5b--------0|
G|------5b----0-0--|
C|--0-------0------|


e|--------------------3-----0------|--------------------3-----0------|
C|--------------0------------------|--------------0------------------|
G|------0h2------------------------|------0h2------------------------|
C|------0-------0-------0-------0--|------0-------0-------0-------0--|
G|---------------------------------|---------------------------------|
C|--0-------0-------0-------0------|--0-------0-------0-------0------|


e|--------------------0-----3------|---------|
C|--------------0-----------------0|------2--|
G|------0h2------------------------|---------|
C|------0-------0-------0-------0--|------0--|
G|---------------------------------|---------|
C|--0-------0-------0-------0------|--0------|


e|---------------------------------|
C|---------------------------------|
G|---------------------------------|
C|------0-------0-------0-------0--|
G|---------------------------------|
C|--0-------0-------0-------0------|


e|--------------------3-----0------|--------------------3-----0------|
C|--------------0------------------|--------------0------------------|
G|------0h2------------------------|------0h2------------------------|
C|------0-------0-------0-------0--|------0-------0-------0-------0--|
G|---------------------------------|---------------------------------|
C|--0-------0-------0-------0------|--0-------0-------0-------0------|


e|--------------------0-----3------|---------|
C|--------------0-----------------0|------2--|
G|------0h2------------------------|---------|
C|------0-------0-------0-------0--|------0--|
G|---------------------------------|---------|
C|--0-------0-------0-------0------|--0------|


e|---------------------------------|
C|---------------------------------|
G|---------------------------------|
C|------0-------0-------0-------0--|
G|---------------------------------|
C|--0-------0-------0-------0------|


e|-------------------|
C|-------------------|
G|------0h2/------7--|
C|------------0------|
G|------0h2/----7----|
C|--0-------0--------|


e|---------------------------------|---------------------------------|
C|---------------------------------|---------------------------------|
G|------7b--\-----5-----5b--/-----7|------7b--\-----5-----5b--/-----7|
C|------------0---------------0----|------------0---------------0----|
G|------7b--\---5-------5b--/---7--|------7b--\---5-------5b--/---7--|
C|--0-------0-------0-------0------|--0-------0-------0-------0------|


e|---------------------------------|---------------------------------|
C|---------------------------------|---------------------------------|
G|------7b--\-----5-----5b--/-----7|------7b--\-----5-----5b--------0|
C|------------0---------------0----|------------0---------------0----|
G|------7b--\---5-------5b--/---7--|------7b--\---5-------5b------0--|
C|--0-------0-------0-------0------|--0-------0-------0-------0------|


e|------7+----------------------12+|------7+----------------------12+|
C|------------5+----7+----------12+|------------5+----7+----------12+|
G|------------------------7+----12+|------------------------7+----12+|
C|------0-------0-----------0---12+|------0-------0-----------0---12+|
G|------------------------------12+|------------------------------12+|
C|--0-------0-------0---0-------12+|--0-------0-------0---0-------12+|


e|------7+----------------------12+|------7+----------------------12+|
C|------------5+----7+----------12+|------------5+----7+----------12+|
G|------------------------7+----12+|------------------------7+----12+|
C|------0-------0-----------0---12+|------0-------0-----------0---12+|
G|------------------------------12+|------------------------------12+|
C|--0-------0-------0---0-------12+|--0-------0-------0---0-------12+|


e|------------------12+-7+--12+-7+-|------------------12+-7+--12+-7+-|
C|------------------12+-7+--12+-7+-|------------------12+-7+--12+-7+-|
G|------------------12+-7+--12+-7+-|------------------12+-7+--12+-7+-|
C|------5b--------0-12+-7+--12+-7+-|------5b--------0-12+-7+--12+-7+-|
G|------5b----0-0---12+-7+--12+-7+-|------5b----0-0---12+-7+--12+-7+-|
C|--0-------0-------12+-7+--12+-7+-|--0-------0-------12+-7+--12+-7+-|

           ...slow it down to a stop and let ring|
e|------------------12+-7+--12+-7+-|--12+-7+--12+|
C|------------------12+-7+--12+-7+-|--12+-7+--12+|
G|------------------12+-7+--12+-7+-|--12+-7+--12+|
C|------5b--------0-12+-7+--12+-7+-|--12+-7+--12+|
G|------5b----0-0---12+-7+--12+-7+-|--12+-7+--12+|
C|--0-------0-------12+-7+--12+-7+-|--12+-7+--12+|


e|----------------3----------------|----------------3----------------|
C|------3----------------/5-------3|------3----------------/5-------3|
G|------------0-------0-------0----|------------0-------0-------0----|
C|------0-------0-------0-------0--|------0-------0-------0-------0--|
G|---------------------------------|---------------------------------|
C|--0-------0-------3----/--5------|--0-------0-------3----/--5------|


e|----------------3----------------|----------------3----------------|
C|------3----------------/5-------3|------3----------------/5-------5|
G|------------0-------0-------0----|------------0-------0-------0----|
C|------0-------0-------0-------0--|------0-------0-------0-------0--|
G|---------------------------------|---------------------------------|
C|--0-------0-------3----/--5------|--0-------0-------3----/--5------|


e|---------------/8------\7------\5|---------------/7------\5-------3|
C|-/----7--------------------------|------5--------------------------|
G|------------0-------0-------0----|------------0-------0-------0----|
C|------0-------0-------0-------0--|------0-------0-------0-------0--|
G|---------------------------------|---------------------------------|
C|-/7-------7----/--8----\--7----\-|--5-------5----/--7----\--5------|


e|----------------3----------------|----------------3----------------|
C|------3----------------/5-------3|------3----------------/5-------3|
G|------------0-------0-------0----|------------0-------0-------0----|
C|------0-------0-------0-------0--|------0-------0-------0-------0--|
G|---------------------------------|---------------------------------|
C|--0-------0-------3----/--5------|--0-------0-------3----/--5------|


e|----------------3----------------|----------------3----------------|
C|------3----------------/5-------3|------3----------------/5-------5|
G|------------0-------0-------0----|------------0-------0-------0----|
C|------0-------0-------0-------0--|------0-------0-------0-------0--|
G|---------------------------------|---------------------------------|
C|--0-------0-------3----/--5------|--0-------0-------3----/--5------|


e|---------------/8------\7------\5|---------------/7------\5-------3|
C|-/----7--------------------------|------5--------------------------|
G|------------0-------0-------0----|------------0-------0-------0----|
C|------0-------0-------0-------0--|------0-------0-------0-------0--|
G|---------------------------------|---------------------------------|
C|-/7-------7----/--8----\--7----\-|--5-------5----/--7----\--5------|


e|----------------3----------------|----------------3---------------0|
C|------3----------------/5-------3|------3----------------/5--------|
G|------------0-------0-------0----|------------0-------0-------0----|
C|------0-------0-------0-------0--|------0-------0-------0-------0--|
G|---------------------------------|---------------------------------|
C|--0-------0-------3----/--5------|--0-------0-------3----/--5------|


e|------------------12+-7+--12+-7+-|------------------12+-7+--12+-7+-|
C|------------------12+-7+--12+-7+-|------------------12+-7+--12+-7+-|
G|------------------12+-7+--12+-7+-|------------------12+-7+--12+-7+-|
C|------5b--------0-12+-7+--12+-7+-|------5b--------0-12+-7+--12+-7+-|
G|------5b----0-0---12+-7+--12+-7+-|------5b----0-0---12+-7+--12+-7+-|
C|--0-------0-------12+-7+--12+-7+-|--0-------0-------12+-7+--12+-7+-|

                    ....slow it down to the end.............|  
e|------------------12+-7+--12+-7+-|--12+-7+--12+---x---12--|
C|------------------12+-7+--12+-7+-|--12+-7+--12+---x---12--|
G|------------------12+-7+--12+-7+-|--12+-7+--12+---x---12--|
C|------5b--------0-12+-7+--12+-7+-|--12+-7+--12+-------12--|
G|------5b----0-0---12+-7+--12+-7+-|--12+-7+--12+-------12--|
C|--0-------0-------12+-7+--12+-7+-|--12+-7+--12+-------12--|
                ....for last note strum over fret (harmonic)|




****************************************************************
References for the song
August Oster on Facebook:
https://www.facebook.com/AugustOstermusicandart
August Oster on icompositions:
http://www.icompositions.com/artists/August_Oster/
August Oster on Soundcloud:
https://soundcloud.com/august-oster
August Oster on YouTube:
https://www.youtube.com/channel/UChacbzLpuUUVIod_Z01Gy5g
****************************************************************
Добавлено: 05.08.2013
Другие материалы по этой песне:
  • Аккорды и текст

Страница создана 05.08.2013
http://primanota.ru/misc-unsigned-bands/august-oster-wagon-theft-chords.htm
Привет, Гость.
Предлагаем пройти революционный курс по гитаре.
Подарок от PrimaNota.Ru, забирай!