PrimaNota.ru - самый крупный в мире бесплатный архив песенных текстов, аккордов, табулатур и нот


Misc Unsigned Bands - All That I Give - Track 01 - таба, видео

Регистрация Запомнить меня
Войти через:  Facebook Google Twitter Vk Yandex Mail.ru

Misc Unsigned Bands - All That I Give - Track 01 - таба, видео

Печатать
Просмотров: 77
Уроки эстрадного вокала в Санкт-Петербурге
-------------------------------------------------------------------------------
                             Track 01 - All That I Give
-------------------------------------------------------------------------------

Tuning: Drop D

INTRO:
e|-------------------------------------------------------------------------------------|
B|-------------------------------------------------------------------------------------|
G|-------------------------------------------------------------------------------------|
D|-----------2----------------X2-------------------------------------------------------|
A|-----3-----------3------2------------------------------------------------------------|
E|-0-0---0-0---0-0---0-0---------------------------------------------------------------|

e|--------------------------------------------------------------------------------------|
B|--------------------------------------------------------------------------------------|
G|--------------------------------------------------------------------------------------|
D|--------2-----------------------------------------------------------------------------|
A|--0-0-3---0-0-3-0-0-2-----------------------------------------------------------------|
E|--------------------------------------------------------------------------------------|

VERSE:
e|--------------------------|---|---------------------|
B|--------------------------|---|---------------------|
G|-----------------------2--|-3-|--2------------------|
D|-0-0-3-0-0-2-0-0-3-0--2--|-3-|--2-------------------|
A|-0-0-3-0-0-2-0-0-3-0--0--|-1-|--0----------------5--|
E|-0-0-3-0-0-2-0-0-3-0-----|----|------5-4-3-5-4-3----|

CHORUS:
e|-----------------------------------------------------------------------------------|
B|-----------------------------------------------------------------------------------|
G|-------------7---------------------------------------------------------------------|
D|---10--2--5--7---7-----------------------------------------------------------------|
A|---10--2--5--5---7-----------------------------------------------------------------|
E|---10--2--5------7-----------------------------------------------------------------|

BRIDGE:
e|--------------------------------------------------------------------------------|
B|--------------------------------------------------------------------------------|
G|--------4-----------------------------------------------------------------------|
D|--5--3--4-----------------------------------------------------------------------|
A|--5--3--2-----------------------------------------------------------------------|
E|--5--3--------------------------------------------------------------------------|

SOLO:
e|---------------------14--12--------------------------------------------------------|
B|------------------------------14---15----------------------------------------------|
G|-----------------------------------------------------------------------------------|
D|-----7--9--------------------------------------------------------------------------|
A|-7b -------9-10--------------------------------------------------------------------|
E|-----------------------------------------------------------------------------------|

e|-----------------------------------------------------------------------------------|
B|-----------------------------------------------------------------------------------|
G|--7--11--9--6----------------------------------------------------------------------|
D|---------------7-9-10-12-----------------------------------------------------------|
A|-----------------------------------------------------------------------------------|
E|-----------------------------------------------------------------------------------|

e|--------------------------------|
B|--------------------------------|
G|------------------CHORUS AGAIN--|
D|--------------------------------|
A|--------------------------------|
E|--------------------------------|


************************************

| /   slide up
| \   slide down
| h   hammer-on
| p   pull-off
| ~   vibrato
| +   harmonic
| x   Mute note
| b   Bend
| pb  Pre-bend
| br  Bend release
| pbr Pre-bend release
| brb Bend release bend

************************************
Добавлено: 04.12.2013
Другие материалы по этой песне:
  • Аккорды и текст

Страница создана 04.12.2013
http://primanota.ru/misc-unsigned-bands/all-that-i-give-track-01-chords.htm
Привет, Гость.
Предлагаем пройти революционный курс по гитаре.
Подарок от PrimaNota.Ru, забирай!