PrimaNota.ru - самый крупный в мире бесплатный архив песенных текстов, аккордов, табулатур и нот


Misc Unsigned Bands - August Oster - Bear Stew - таба, видео

Регистрация Запомнить меня
Войти через:  Facebook Google Twitter Vk Yandex Mail.ru

Misc Unsigned Bands - August Oster - Bear Stew - таба, видео

Печатать
Просмотров: 47
-----------------------------------------------------------------------------
                            Bear Stew - August Oster
-----------------------------------------------------------------------------

Tabbed by: August Oster
Email: osterhoutben@gmail.com

Tuning: Open D (DADF#AD)

***********************
Legend
h = hammer on
p = pull off
/ = slide up
\ = slide down
b = bend
+ = harmonic
***********************



d |-------------------------0--------|----------------------------------|
A |----------------------------------|-------------------------0--------|
F#|----0-----------0----------------0|----0-----------0----------------0|
D |----------0----------0-------0----|----------0----------0-------0----|
A |-----------------------0-------0--|-----------------------0-------0--|
D |-5-----4-----2-----0-------0------|-5-----4-----2-----0-------0------|


d |-------------------------0--------|----------------------------------|
A |----------------------------------|-------------------------0--------|
F#|----0-----------0----------------0|----0-----------0----------------0|
D |----------0----------0-------0----|----------0----------0-------0----|
A |-----------------------0-------0--|-----------------------0-------0--|
D |-5-----4-----2-----0-------0------|-5-----4-----2-----0-------0------|


d |---------------2/5------0--------|---------------------------------|
A |------5p0-----------------------5|-------\4------\2-------0-------0|
F#|------------0-------0-------0----|----0-------0-------0-------0----|
D |------5p0-----0-------0-------0--|------5\------4\------0-------0--|
A |---------------------------------|---------------------------------|
D |--0-------0-------0-------0------|--0-------0-------0-------0------|


d |---------------2/5------0--------|---------------------------------|
A |------5p0-----------------------5|-------\4------/9-------0-------0|
F#|------------0-------0-------0----|----0-------0-------0-------0----|
D |------5p0-----0-------0-------0--|------5\------4/------0-------0--|
A |---------------------------------|---------------------------------|
D |--0-------0-------0-------0------|--0-------0-------0-------0------|


d |---------------2/5------0--------|---------------------------------|
A |------5p0-----------------------5|-------\4------\2-------0-------0|
F#|------------0-------0-------0----|----0-------0-------0-------0----|
D |------5p0-----0-------0-------0--|------5\------4\------0-------0--|
A |---------------------------------|---------------------------------|
D |--0-------0-------0-------0------|--0-------0-------0-------0------|


d |---------------------------------|-------------------------0--------|
A |--------0-------0-------0-------0|----------------------------------|
F#|----0-------0-------0-------0----|----0-----------0----------------0|
D |------0-------0-------0-------0--|----------0----------0-------0----|
A |--5-------4-------2-------0------|-----------------------0-------0--|
D |---------------------------------|-5-----4-----2-----0-------0------|

d |---------------------------------|----------------------------------|
A |--------0-------0-------0-------0|-------------------------0--------|
F#|----0-------0-------0-------0----|----0-----------0----------------0|
D |------0-------0-------0-------0--|----------0----------0-------0----|
A |--5-------4-------2-------0------|-----------------------0-------0--|
D |---------------------------------|-5-----4-----2-----0-------0------|


d |---------------------------------|---------------------------------|
A |---------------------------------|---------------------------------|
F#|---------------------------------|---------------------------------|
D |--------7-------7-----0-------0--|--------7-------7-----0-------0--|
A |----0-0-----0-0------------------|----0-0-----0-0------------------|
D |--7-------7-------0-------0------|--7-------7-------0-------0------|


d |-----------------|
A |-----------------|
F#|-----------------|
D |--------7-------7|
A |----0-0-----0-0--|
D |--7-------7------|


d |----------------0---------------0|----------------0----------------|
A |------9-----------------9--------|--------9---------------9------\3|
F#|------------8-------8-------8----|----8-------8-------8-------8--\-|
D |-/----9-------9-------9-------9--|------9-------9-------9-------9\-|
A |---------------------------------|---------------------------------|
D |-/9-------9-------9-------9------|--9-------9-------9-------9----\-|

     .... wave in and out with intensity...
d |---------------------------------|--------0------------------------|
A |--------3-------3-------3-------3|----------------3-------3-------3|
F#|----2-------2-------2-------2----|----2-------2-------2-------2----|
D |------3-------3-------3-------3--|------3-------3-------3-------3--|
A |---------------------------------|---------------------------------|
D |--3-------3-------3-------3------|--3-------3-------3-------3------|


d |--------0---------------0--------|
A |----------------3--------------/9|
F#|----2-------2-------2-------2--/-|
D |------3-------3-------3-------3/-|
A |---------------------------------|
D |--3-------3-------3-------3----/-|


d |--------0---------------0--------|--------0---------------0--------|
A |----------------9---------------9|----------------9---------------0|
F#|----8-------8-------8-------8----|----8-------8-------8-------8--\-|
D |------9-------9-------9-------9--|------9-------9-------9-------9\-|
A |---------------------------------|---------------------------------|
D |--9-------9-------9-------9------|--9-------9-------9-------9----\-|

   .... wave in and out with intensity...
d |---------------------------------|--------3------------------------|
A |--------0-------0-------0-------0|----------------0-------0-------0|
F#|----2-------2-------2-------2----|----2-------2-------2-------2----|
D |------3-------3-------3-------3--|------3-------3-------3-------3--|
A |---------------------------------|---------------------------------|
D |--3-------3-------3-------3------|--3-------3-------3-------3------|


d |--------3---------------3--------|
A |----------------0----------------|
F#|----2-------2-------2-------2----|
D |------3-------3-------3-------3--|
A |---------------------------------|
D |--3-------3-------3-------3------|


d |---------------------------------|---------------------------------|
A |------5--------\2-----2--------/9|------9--------\4-------0------/5|
F#|------------0---------------0----|------------0-------0-------0----|
D |------5-------5\------2-------2/-|------9-------9\------4-------4/-|
A |---------------------------------|---------------------------------|
D |--5-------5----\--2-------2----/-|--9-------9----\--4-------4----/-|


d |---------------------------------|---------------------------------|
A |------5--------\2-----2--------/9|------9--------\4-------0------/5|
F#|------------0---------------0----|------------0-------0-------0----|
D |------5-------5\------2-------2/-|------9-------9\------4-------4/-|
A |---------------------------------|---------------------------------|
D |--5-------5----\--2-------2----/-|--9-------9----\--4-------4----/-|


d |----------------------------------|---------------------------------|
A |------5--------/7-----7--------/12|--------12------12------12------0|
F#|------------0---------------0-----|----0-------0-------0-------0----|
D |------5-------5/------7-------7/--|------12------12------12------0--|
A |----------------------------------|---------------------------------|
D |--5-------5----/--7-------7----/--|--12------12------12------12-----|


d |-------------------------0--------|----------------------------------|
A |----------------------------------|-------------------------0--------|
F#|----0-----------0----------------0|----0-----------0----------------0|
D |----------0----------0-------0----|----------0----------0-------0----|
A |-----------------------0-------0--|-----------------------0-------0--|
D |-5-----4-----2-----0-------0------|-5-----4-----2-----0-------0------|


d |-------------------------0--------|----------------------------------|
A |----------------------------------|-------------------------0--------|
F#|----0-----------0----------------0|----0-----------0----------------0|
D |----------0----------0-------0----|----------0----------0-------0----|
A |-----------------------0-------0--|-----------------------0-------0--|
D |-5-----4-----2-----0-------0------|-5-----4-----2-----0-------0------|


d |---------------2/5------0--------|---------------------------------|
A |------5p0-----------------------5|-------\4------\2-------0-------0|
F#|------------0-------0-------0----|----0-------0-------0-------0----|
D |------5p0-----0-------0-------0--|------5\------4\------0-------0--|
A |---------------------------------|---------------------------------|
D |--0-------0-------0-------0------|--0-------0-------0-------0------|


d |---------------2/5------0--------|---------------------------------|
A |------5p0-----------------------5|-------\4------/9-------0-------0|
F#|------------0-------0-------0----|----0-------0-------0-------0----|
D |------5p0-----0-------0-------0--|------5\------4/------0-------0--|
A |---------------------------------|---------------------------------|
D |--0-------0-------0-------0------|--0-------0-------0-------0------|


d |---------------2/5------0--------|---------------------------------|
A |------5p0-----------------------5|-------\4------\2-------0-------0|
F#|------------0-------0-------0----|----0-------0-------0-------0----|
D |------5p0-----0-------0-------0--|------5\------4\------0-------0--|
A |---------------------------------|---------------------------------|
D |--0-------0-------0-------0------|--0-------0-------0-------0------|


d |---------------------------------|-------------------------0--------|
A |--------0-------0-------0-------0|----------------------------------|
F#|----0-------0-------0-------0----|----0-----------0----------------0|
D |------0-------0-------0-------0--|----------0----------0-------0----|
A |--5-------4-------2-------0------|-----------------------0-------0--|
D |---------------------------------|-5-----4-----2-----0-------0------|


d |---------------------------------|----------------------------------|
A |--------0-------0-------0-------0|-------------------------0--------|
F#|----0-------0-------0-------0----|----0-----------0----------------0|
D |------0-------0-------0-------0--|----------0----------0-------0----|
A |--5-------4-------2-------0------|-----------------------0-------0--|
D |---------------------------------|-5-----4-----2-----0-------0------|


d |---------------------------------|---------------------------------|
A |----------------0----------------|----------------0----------------|
F#|------5b-------------------------|------5b-------------------------|
D |------------0-0-------0-------0--|------------0-0-------0-------0--|
A |------5b-------------------------|------5b-------------------------|
D |--0-------0-------0-------0------|--0-------0-------0-------0------|


d |--0h5h7-------------0-----------|--0h5h7-------------0------------|
A |--------0h5h7-------------------|--------0h5h7--------------------|
F#|--------------0h5h7-------------|--------------0h5h7--------------|
D |-----------------------0-----0--|------------------------0-----0--|
A |--------------------------------|---------------------------------|
D |--0-----------------0-----0-----|--0------------------0-----0-----|


d |--0h5h7-------------------------|--0h5h7-------------0-----------|
A |--------0h5h7-------------------|--------0h5h7-------------------|
F#|--------------0h5h7/10----------|--------------0h5h7-------------|
D |-----------------------0-----0--|-----------------------0-----0--|
A |--------------------------------|--------------------------------|
D |--0-----------------0-----0-----|--0-----------------0-----0-----|


d |----------------0----------------|-----------------|
A |------7p0-------------9p0-------5|--------5-------5|
F#|------------0---------------0----|----0-------0----|
D |--------------0---------------0--|------0-------0--|
A |------7p0-------------9p0--------|--5-------5------|
D |--0-------0-------0-------0------|-----------------|


d |----------------0----------------|-----------------|
A |-/----7p0-------------9p0-------5|--------5-------5|
F#|------------0---------------0----|----0-------0----|
D |--------------0---------------0--|------0-------0--|
A |-/----7p0-------------9p0--------|--5-------5------|
D |--0-------0-------0-------0------|-----------------|


d |----------------0----------------|-----------------|
A |-/----7p0-------------9p0-------5|--------5-------0|
F#|------------0---------------0----|----0-------0----|
D |--------------0---------------0--|------0-------0--|
A |-/----7p0-------------9p0--------|--5-------5------|
D |--0-------0-------0-------0------|-----------------|


d |--------12+-------------1+-------|--------12+-------------1+-------|
A |----------------12+------------1+|----------------12+------------1+|
F#|----12+-----12+-----1+------1+---|----12+-----12+-----1+------1+---|
D |------12+-----12+-----1+------1+-|------12+-----12+-----1+------1+-|
A |---------------------------------|---------------------------------|
D |--12+-----12+-----1+------1+-----|--12+-----12+-----1+------1+-----|


d |--------12+-------------1+-------|--------12+-------------1+-------|
A |----------------12+------------1+|----------------12+-------------0|
F#|----12+-----12+-----1+------1+---|----12+-----12+-----1+------1+---|
D |------12+-----12+-----1+------1+-|------12+-----12+-----1+------1+-|
A |---------------------------------|---------------------------------|
D |--12+-----12+-----1+------1+-----|--12+-----12+-----1+------1+-----|


d |-------------------------0--------|----------------------------------|
A |----------------------------------|-------------------------0--------|
F#|----0-----------0----------------0|----0-----------0----------------0|
D |----------0----------0-------0----|----------0----------0-------0----|
A |-----------------------0-------0--|-----------------------0-------0--|
D |-5-----4-----2-----0-------0------|-5-----4-----2-----0-------0------|


d |-------------------------0--------|----------------------------------|
A |----------------------------------|-------------------------0--------|
F#|----0-----------0----------------0|----0-----------0----------------0|
D |----------0----------0-------0----|----------0----------0-------0----|
A |-----------------------0-------0--|-----------------------0-------0--|
D |-5-----4-----2-----0-------0------|-5-----4-----2-----0-------0------|


d |---------------2/5------0--------|---------------------------------|
A |------5p0-----------------------5|-------\4------\2-------0-------0|
F#|------------0-------0-------0----|----0-------0-------0-------0----|
D |------5p0-----0-------0-------0--|------5\------4\------0-------0--|
A |---------------------------------|---------------------------------|
D |--0-------0-------0-------0------|--0-------0-------0-------0------|


d |---------------2/5------0--------|---------------------------------|
A |------5p0-----------------------5|-------\4------/9-------0-------0|
F#|------------0-------0-------0----|----0-------0-------0-------0----|
D |------5p0-----0-------0-------0--|------5\------4/------0-------0--|
A |---------------------------------|---------------------------------|
D |--0-------0-------0-------0------|--0-------0-------0-------0------|


d |---------------2/5------0--------|---------------------------------|
A |------5p0-----------------------5|-------\4------\2-------0-------0|
F#|------------0-------0-------0----|----0-------0-------0-------0----|
D |------5p0-----0-------0-------0--|------5\------4\------0-------0--|
A |---------------------------------|---------------------------------|
D |--0-------0-------0-------0------|--0-------0-------0-------0------|


d |---------------------------------|-------------------------0--------|
A |--------0-------0-------0-------0|----------------------------------|
F#|----0-------0-------0-------0----|----0-----------0----------------0|
D |------0-------0-------0-------0--|----------0----------0-------0----|
A |--5-------4-------2-------0------|-----------------------0-------0--|
D |---------------------------------|-5-----4-----2-----0-------0------|


d |---------------------------------|----------------------------------|
A |--------0-------0-------0-------0|-------------------------0--------|
F#|----0-------0-------0-------0----|----0-----------0----------------0|
D |------0-------0-------0-------0--|----------0----------0-------0----|
A |--5-------4-------2-------0------|-----------------------0-------0--|
D |---------------------------------|-5-----4-----2-----0-------0------|
 
  ....slower than the normal speed...
d |------------------------0--------|------------------------0--------|
A |----5-----4-----0---------------0|----5-----4-----0---------------0|
F#|------0-----0-------0-------0----|------0-----0-------0-------0----|
D |--------0-----0-------0-------0--|--------0-----0-------0-------0--|
A |---------------------------------|---------------------------------|
D |--5-------5-------5-------5------|--5-------5-------5-------5------|


d |---------------------------------|---------------------------------|
A |----7-----5-----9---9---9---9---0|----7-----5-----9---9---9---9---0|
F#|------0-----0--------------------|------0-----0--------------------|
D |--------0-----0-------0-------0--|--------0-----0-------0-------0--|
A |---------------------------------|---------------------------------|
D |--7-------7-------7-------7------|--7-------7-------7-------7------|


d |------------------------0--------|------------------------0--------|
A |----5-----4-----0---------------0|----5-----4-----0---------------0|
F#|------0-----0-------0-------0----|------0-----0-------0-------0----|
D |--------0-----0-------0-------0--|--------0-----0-------0-------0--|
A |---------------------------------|---------------------------------|
D |--5-------5-------5-------5------|--5-------5-------5-------5------|


d |---------------------------------|---------------------------------|
A |----7-----5-----9---9---9---9---0|----7-----5-----9---9---9---9---0|
F#|------0-----0--------------------|------0-----0--------------------|
D |--------0-----0-------0-------0--|--------0-----0-------0-------0--|
A |---------------------------------|---------------------------------|
D |--7-------7-------7-------7------|--7-------7-------7-------7------|


d |--------0---------------0--------|--------0---------------0--------|
A |----------------0---------------0|----------------0---------------0|
F#|----7-------7-------5-------5----|----0-------0-------0-------0----|
D |------0-------0-------0-------0--|------0-------0-------0-------0--|
A |---------------------------------|---------------------------------|
D |--7-------7-------5-------5------|--0-------0-------0-------0------|


d |--------0---------------0--------|--------0---------------0--------|
A |----------------0---------------0|----------------0---------------0|
F#|----7-------7-------5-------5----|----0-------0-------0-------0----|
D |------0-------0-------0-------0--|------0-------0-------0-------0--|
A |---------------------------------|---------------------------------|
D |--7-------7-------5-------5------|--0-------0-------0-------0------|

   ...speed back up to normal speed...
d |----------------0----------------|-----------------|
A |------7p0-------------9p0-------5|--------5-------5|
F#|------------0---------------0----|----0-------0----|
D |--------------0---------------0--|------0-------0--|
A |------7p0-------------9p0--------|--5-------5------|
D |--0-------0-------0-------0------|-----------------|


d |----------------0----------------|-----------------|
A |-/----7p0-------------9p0-------5|--------5-------5|
F#|------------0---------------0----|----0-------0----|
D |--------------0---------------0--|------0-------0--|
A |-/----7p0-------------9p0--------|--5-------5------|
D |--0-------0-------0-------0------|-----------------|


d |----------------0----------------|-----------------|
A |-/----7p0-------------9p0-------5|--------5-------0|
F#|------------0---------------0----|----0-------0----|
D |--------------0---------------0--|------0-------0--|
A |-/----7p0-------------9p0--------|--5-------5------|
D |--0-------0-------0-------0------|-----------------|


d |--------12+-------------1+-------|--------12+-------------1+-------|
A |----------------12+------------1+|----------------12+------------1+|
F#|----12+-----12+-----1+------1+---|----12+-----12+-----1+------1+---|
D |------12+-----12+-----1+------1+-|------12+-----12+-----1+------1+-|
A |---------------------------------|---------------------------------|
D |--12+-----12+-----1+------1+-----|--12+-----12+-----1+------1+-----|


d |--------12+-------------1+-------|--------12+-------------1+-------|
A |----------------12+------------1+|----------------12+-------------0|
F#|----12+-----12+-----1+------1+---|----12+-----12+-----1+------1+---|
D |------12+-----12+-----1+------1+-|------12+-----12+-----1+------1+-|
A |---------------------------------|---------------------------------|
D |--12+-----12+-----1+------1+-----|--12+-----12+-----1+------1+-----|


d |-------------------------0--------|----------------------------------|
A |----------------------------------|-------------------------0--------|
F#|----0-----------0----------------0|----0-----------0----------------0|
D |----------0----------0-------0----|----------0----------0-------0----|
A |-----------------------0-------0--|-----------------------0-------0--|
D |-5-----4-----2-----0-------0------|-5-----4-----2-----0-------0------|


d |-------------------------0--------|----------------------------------|
A |----------------------------------|-------------------------0--------|
F#|----0-----------0----------------0|----0-----------0----------------0|
D |----------0----------0-------0----|----------0----------0-------0----|
A |-----------------------0-------0--|-----------------------0-------0--|
D |-5-----4-----2-----0-------0------|-5-----4-----2-----0-------0------|


d |---------------2/5------0--------|---------------------------------|
A |------5p0-----------------------5|-------\4------\2-------0-------0|
F#|------------0-------0-------0----|----0-------0-------0-------0----|
D |------5p0-----0-------0-------0--|------5\------4\------0-------0--|
A |---------------------------------|---------------------------------|
D |--0-------0-------0-------0------|--0-------0-------0-------0------|


d |---------------2/5------0--------|---------------------------------|
A |------5p0-----------------------5|-------\4------/9-------0-------0|
F#|------------0-------0-------0----|----0-------0-------0-------0----|
D |------5p0-----0-------0-------0--|------5\------4/------0-------0--|
A |---------------------------------|---------------------------------|
D |--0-------0-------0-------0------|--0-------0-------0-------0------|


d |---------------2/5------0--------|---------------------------------|
A |------5p0-----------------------5|-------\4------\2-------0-------0|
F#|------------0-------0-------0----|----0-------0-------0-------0----|
D |------5p0-----0-------0-------0--|------5\------4\------0-------0--|
A |---------------------------------|---------------------------------|
D |--0-------0-------0-------0------|--0-------0-------0-------0------|


d |---------------------------------|-------------------------0--------|
A |--------0-------0-------0-------0|----------------------------------|
F#|----0-------0-------0-------0----|----0-----------0----------------0|
D |------0-------0-------0-------0--|----------0----------0-------0----|
A |--5-------4-------2-------0------|-----------------------0-------0--|
D |---------------------------------|-5-----4-----2-----0-------0------|


d |---------------------------------|----------------------0--0--|
A |--------0-------0-------0-------0|----------------------0--0--|
F#|----0-------0-------0-------0----|----0-----------0-----0--0--|
D |------0-------0-------0-------0--|----------0--------------0--|
A |--5-------4-------2-------0------|-------------------------0--|
D |---------------------------------|-5-----4-----2-----0-----0--|





**********************************************************************
References for song:
August Oster on Facebook:
https://www.facebook.com/AugustOstermusicandart
August Oster on icompositions:
http://www.icompositions.com/artists/August_Oster/
August Oster on Soundcloud:
https://soundcloud.com/august-oster
August Oster on YouTube:
https://www.youtube.com/channel/UChacbzLpuUUVIod_Z01Gy5g
**********************************************************************
Добавлено: 06.10.2013
Другие материалы по этой песне:
  • Аккорды и текст

Страница создана 06.10.2013
http://primanota.ru/misc-unsigned-bands/august-oster-bear-stew-chords.htm
Привет, Гость.
Предлагаем пройти революционный курс по гитаре.
Подарок от PrimaNota.Ru, забирай!