PrimaNota.ru - самый крупный в мире бесплатный архив песенных текстов, аккордов, табулатур и нот


Misc Unsigned Bands - Andrew Foy - Little Talks Cover - таба

Регистрация Запомнить меня
Войти через:  Facebook Google Twitter Vk Yandex Mail.ru

Misc Unsigned Bands - Andrew Foy - Little Talks Cover - таба

Печатать
Просмотров: 119
CAPO 1
Standard

           Am    F      C       G            Am    F          C       G

 E-|----|-------------------------------||--------------------------------------||
 B-|----|--1--1--1---1-----1-1-----3-3--||---1--1------1h3-1-----1-1-------0h1--||
 G-|--2-|----------2-------0-0-----0-0--||-----------2-----------0-0-----0------||
 D-|----|--2--2--3--3-------------------||---2--2--3----------------------------|| X2
 A-|----|---------------3---------------||--------------------3-----------------||
 E-|----|-----------------------3-------||----------------------------3---------||


      
      Am       F        C     G

 E-|--------0--------------------------------------------||
 B-|--1--1-------1h3-1----1h3-3-----------------------1--||
 G-|--2--2------2--------2---------------------------0---||
 D-|--2--2-----3-----------------0h2-2-2-0-3-0h2-0--2----|| X3
 A-|--------------------3--------------------------3-----||
 E-|--------------------------3------------1-------------||

                       C/G   G       Am    F      C


 E-|----3-3s6-0-3-0-3--3--3-------|--0--0--X-X-X--0-0-0-0--||
 B-|---0--3s6----------------3-3--|--1--1--3-1-1--1-1-1-1--||
 G-|--0---3s6---------------------|--2--2--2-2-2--0-0-0-0--||
 D-|------------------------------|--2--2--3-3-3--2-2-2-2--||
 A-|-------------------3--3-------|--0--0---------3-3-3-3--||
 E-|--------------------------3---|------------------------||


I'm not a particularly musical person so hey it's probably wrong but y-know it's 
free so get over it.
Cheers Tim
Добавлено: 03.08.2013
Другие материалы по этой песне:
  • Аккорды и текст

Страница создана 03.08.2013
http://primanota.ru/misc-unsigned-bands/andrew-foy-little-talks-cover-chords.htm
Привет, Гость.
Предлагаем пройти революционный курс по гитаре.
Подарок от PrimaNota.Ru, забирай!