PrimaNota.ru - самый крупный в мире бесплатный архив песенных текстов, аккордов, табулатур и нот


Misc Unsigned Bands - 2nd Ll None - Fear - бас-таба, видео

Регистрация Запомнить меня
Войти через:  Facebook Google Twitter Vk Yandex Mail.ru

Misc Unsigned Bands - 2nd Ll None - Fear - бас-таба, видео

Печатать
Просмотров: 76
Song: F.E.A.R.(Forget Everything's All Right)
Artist: 2nd II None
Tuning: Standard(GDAE)
Note: Song is 3/4 time in 208 metronome.


 Intro:
G|------------------------------------|
D|-----2-------2-------2-4-----2-4~---|
A|-1-3---4-1-3---4-1-3-----1-3--------|
E|------------------------------------|


 Verse:
G|---------------------------|
D|---------------------------|X6
A|-------3-3-3-4-4-4---------|
E|-1-1-1-------------6-6-6---|


 Pre-Chorus:
G|---------------------------|
D|---------------------------|X2
A|-----1-----1-----3-----3---|
E|-1-3---1-3---1-3---1-3-----|


 Chorus:
G|---------------------------------------------------|
D|---------------------------------------------------|X2
A|-1-1-1-------------5-5-5-------1-1-1-5-5-5---------|
E|-------1-1-1-5-5-5-------1-1-1-------------5-5-5---|


 Breakdown:
G|-----6---------6---------6---------6-------|
D|---7---7-5---7---7-5---7---5-7---7---5-7---|X2
A|-5---------5---------5---------5-----------|
E|-------------------------------------------|


 Verse:
G|---------------------------|
D|---------------------------|X6
A|-------3-3-3-4-4-4---------|
E|-1-1-1-------------6-6-6---|


 Pre-Chorus:
G|---------------------------|
D|---------------------------|X2
A|-----1-----1-----3-----3---|
E|-1-3---1-3---1-3---1-3-----|


Chorus:
G|---------------------------------------------------|
D|---------------------------------------------------|X2
A|-1-1-1-------------5-5-5-------1-1-1-5-5-5---------|
E|-------1-1-1-5-5-5-------1-1-1-------------5-5-5---|


 Solo:
G|-------------------|
D|-1-------------3---|X10
A|---3-1-----3-1-----|
E|-------3-1---------|


End:
G|----------------------------------------------------|
D|----------------------------------------------------|X2
A|-1-1-1-------------5-5-5-------1-1-1-5-5-5----------|
E|-------1-1-1-5-5-5-------1-1-1-------------5-5-5~---|



Добавлено: 17.08.2013
Другие материалы по этой песне:
  • Аккорды и текст

Страница создана 17.08.2013
http://primanota.ru/misc-unsigned-bands/2nd-ll-none-fear-chords.htm
Привет, Гость.
Предлагаем пройти революционный курс по гитаре.
Подарок от PrimaNota.Ru, забирай!