PrimaNota.ru - самый крупный в мире бесплатный архив песенных текстов, аккордов, табулатур и нот


Misc Unsigned Bands - Aggressive Audio - Ang Tigulang - бас-таба

Регистрация Запомнить меня
Войти через:  Facebook Google Twitter Vk Yandex Mail.ru

Misc Unsigned Bands - Aggressive Audio - Ang Tigulang - бас-таба

Печатать
Просмотров: 76
Уроки эстрадного вокала в Санкт-Петербурге
Aggressive Audio - ang tigulang

Fake Tab by:vhenz
Bass Guitar Tab

Intro:
G|-------------------------------------------------|
D|-------------5-5-5-0-5-0-3-3-3-0-3-0-5-5-5-0-5-0-|
A|-3-3-3-0-3-0-------------------------------------|
E|-------------------------------------------------|
"Lalalalalalalalalala......"

G|-------------------------------------------------------------|
D|-------------5-5-5-0-5-0-3-3-3-0-3-0-55-33-22-00-------------|
A|-3-3-3-0-3-0-------------------------------------3-3-0-3-0-3-|
E|-------------------------------------------------------------|

Verse 1 & 2:
G|-------------------------------------------------|
D|-------5-7h5-------------------------------------|
A|-3-3/7-------------5-7h5-------3-5h3-------5-7h5-|
E|-------------3-3/7-------1-1/5-------3-3/7-------|

Ibalik-balik lng ni...


Chorus:
G|---------------------------------------|
D|------------------5--------------------|
A|-3-3/7-5-3--3-3/7--------------------5-|
E|--------------------3-3/7-5-3--3-3/7---|

G|---------------------------------------|
D|---------------------------------------|
A|------------------3------------------5-|
E|-1-1/5-3-1--1-1/5---3-3/7-5-3--3-1/7---|


sa adlib ka2 rang sa vers 1 & 2 mo tono ra2...


Bridge:
G|---------------------------------------------------|
D|--------5------3------5-------------5------3-----5-|
A|-3---------------------------3---------------------|
E|---------------------------------------------------|
mao ni ka2ng sa "unya dihang naglalis sila kng kinsa jud ang gwapo ug gwapa" tyminga ra 
guitara pra mo tono...

(Repeat Chorus)

hehehehe..... hagua gama oi copy lang ta..
sooorrrryyy 
hi pala sa akong mga friends sa holy name university.
crister D
marlon C.

AYAW MO KA SUKO HA... AMIGO TA..heheheheh
Добавлено: 13.08.2013
Другие материалы по этой песне:
  • Аккорды и текст

Страница создана 13.08.2013
http://primanota.ru/misc-unsigned-bands/aggressive-audio-ang-tigulang-chords.htm
Привет, Гость.
Предлагаем пройти революционный курс по гитаре.
Подарок от PrimaNota.Ru, забирай!