PrimaNota.ru - самый крупный в мире бесплатный архив песенных текстов, аккордов, табулатур и нот


Misc Unsigned Bands - Amapola - Revenge - бас-таба

Регистрация Запомнить меня
Войти через:  Facebook Google Twitter Vk Yandex Mail.ru

Misc Unsigned Bands - Amapola - Revenge - бас-таба

Печатать
Просмотров: 58
Band: Amapola
Song: Revenge
ALbum:Amapola
Standar tunning EADG
Enjoy

Intro (x6)
G|---------------------------------------|
D|---------------------------------------|
A|--55555555-88888888--------------------|
E|--------------------66666666---55555555|

Verse (x6)
G|--------------------------------------------|
D|----7----7-----7----7-----------------------|
A|-55--5-5--5-88--8-8--8----8----8-----7----7-|
E|-----------------------66--6-6--6-55--5-5--5|

Bridge (x4)
G|----------|
D|--7--7----|
A|-5--8--8-7|
E|------6-5-|
*this line is played fast

Prechorus
G|----|
D|----|
A|-5~-|
E|----|

Chorus (x1) 
G|---------------------------------------------------------------------|
D|---------------------------------------------------------------------|
A|-------------------55555555-8888888-------------------1010-88-1010-88|
E|-55555555-88888888------------------55555555-88888888----------------|

G|---------------------------------------------------------------------|
D|---------------------------------------------------------------------|
A|-------------------55555555-8888888-------------------10~------------|
E|-55555555-88888888------------------55555555-88888888----------------|

Verse (x6)
G|--------------------------------------------|
D|----7----7-----7----7-----------------------|
A|-55--5-5--5-88--8-8--8----8----8-----7----7-|
E|-----------------------66--6-6--6-55--5-5--5|

Bridge (x4)
G|----------|
D|--7--7----|
A|-5--8--8-7|
E|------6-5-|
*this line is played fast
 
Prechorus
G|----|
D|----|
A|-5~-|
E|----|

Chorus (x1) 
G|---------------------------------------------------------------------|
D|---------------------------------------------------------------------|
A|-------------------55555555-8888888-------------------1010-88-1010-88|
E|-55555555-88888888------------------55555555-88888888----------------|

G|---------------------------------------------------------------------|
D|---------------------------------------------------------------------|
A|-------------------55555555-8888888-------------------10~------------|
E|-55555555-88888888------------------55555555-88888888----------------|

Solo (x2)  
G|-------------------------------------------------|
D|-------------------------------------------------|
A|-5-78--78--78---78-8h10p8-7-8-5h7p5-3h5p3-1h3p1-0|
E|-----5---6----8----------------------------------|

Bridge B (x8)
G|--------------------------------------|
D|---------------------------55-33-55-33|
A|-55555555-88888888--------------------|
E|-------------------66666666-----------|

Final note
D|---|
G|---|
A|-5~|
E|---|
Добавлено: 24.12.2013
Другие материалы по этой песне:
  • Аккорды и текст

Страница создана 24.12.2013
http://primanota.ru/misc-unsigned-bands/amapola-revenge-chords.htm
Привет, Гость.
Предлагаем пройти революционный курс по гитаре.
Подарок от PrimaNota.Ru, забирай!