PrimaNota.ru - самый крупный в мире бесплатный архив песенных текстов, аккордов, табулатур и нот


Misc Television - Community - Geothermal Escapism - таба

Регистрация Запомнить меня
Войти через:  Facebook Google Twitter Vk Yandex Mail.ru

Misc Television - Community - Geothermal Escapism - таба

Печатать
Просмотров: 66
Уроки эстрадного вокала в Санкт-Петербурге
From Community - Season 5 - Geothermal Escapism
Part just after Abed is cloned and before Troy says his Goodbyes.

About 16:35 in is when it starts. It also starts with the Backing with melody coming in a few seconds after

Did this from ear. Hard to do with the voices over the top.

Melody:
|--------------------------------------------------------|
|-11------10------6-6--8---------------------------------|
|----------------------------------7-8---7-------5-------|
|-------------------------8----5-7-----------8-8---5-----|
|--------------------------------------------------------|
|--------------------------------------------------------|

|--------------------------------------------------------------------------|
|-10-11------10------6-6--8------------------------------------------------|
|------------------------------------7-8----7---------7-8---7-------5------|
|---------------------------8----5-7-------------8--------------8-8---5----|
|--------------------------------------------------------------------------|
|--------------------------------------------------------------------------|

Backing:

|---------------------------------------------------------------------------|
|-3------------8-------------------3---3------3---3------8---8------8---8---|
|-3------------8-------------------3---3------3---3------8---8------8---8---|
|---------------------------------------------------------------------------|
|-1------------6----------------1-----1----1-----1----6-----6----6-----6----|
|---------------------------------------------------------------------------|
                               [____________________________________________]
                                                Repeat x4

|----------------------------------------------------------------------------------------------|
|----4---4------6---6------8---8-----------------4---4------6---6------8---8------8---8--------|
|----5---5------7---7------8---8-----------------5---5------7---7------8---8------8---8--------|
|----------------------------------------------------------------------------------------------|
|-3-----3----5-----5----6-----6---------------3-----3----5-----5----6-----6----6-----6-----6---|
|----------------------------------------------------------------------------------------------|


|-----------------------------------------------------------------------------------------------------|
|-----6------6------6------6------6------6------8------8------8------8------8------8-------6------6---|
|---7------7------7------7------7------7------7------7------7------7------7------7-------5------5-----|
|-8------8------8------8------8------8------8------8------8------8------8------8-------7------7-------|
|-----------------------------------------------------------------------------------------------------|
|-----------------------------------------------------------------------------------------------------|

|---------------------------------------------------------------------------------|
|-----6------6------6------6-------8------8------8------6------6-------6------6---|
|---5------5------5------5-------7------7------7------7------7-------7------7-----|
|-7------7------7------7-------8------8------8------8------8-------8------8-------|
|---------------------------------------------------------------------------------|
|---------------------------------------------------------------------------------|

I have no idea if this is right or if there is more to it.
If you think something is wrong or have corrections then let me know.
Добавлено: 06.04.2016
Другие материалы по этой песне:
  • Аккорды и текст

Страница создана 06.04.2016
http://primanota.ru/misc-television/community-geothermal-escapism-chords.htm
Привет, Гость.
Предлагаем пройти революционный курс по гитаре.
Подарок от PrimaNota.Ru, забирай!