PrimaNota.ru - самый крупный в мире бесплатный архив песенных текстов, аккордов, табулатур и нот


Misc Television - Denji Sentai Megaranger Theme - таба

Регистрация Запомнить меня
Войти через:  Facebook Google Twitter Vk Yandex Mail.ru

Misc Television - Denji Sentai Megaranger Theme - таба

Печатать
Просмотров: 75
Уроки эстрадного вокала в Санкт-Петербурге
-------------------------------------------------------------------------------
                           Denji Sentai Megaranger
-------------------------------------------------------------------------------
Tabbed by:timecrimson
The theme song for the 1997 show Denji Sentai Megaranger/21 installment of the Super 
Sentai series in Japan.
Its footage was used in 1998 show Power Rangers in Space in the United States.

e|------------------------------------------------------------------------------|
B|------------------------2-2-22-0-2-0---2---0-0-0---00---0--0------------------|
G|-2-----------------------------------2-----------2----2------2--2--1-1--------|
D|----4--2-2--4---4-4-4--------------------------------------------------4-4-2--|
A|------------------------------------------------------------------------------|
E|------------------------------------------------------------------------------|

e|---------------------------------------------------------------------------|
B|------------------------2-2-22-0-2-0-----0-0---0-0---0--0------------------|
G|-2-----------------------------------2-------2-----2------2----2---2--1----|
D|----4--2-2--4---4-4-4------------------4---------------------4---4---------|
A|---------------------------------------------------------------------------|
E|---------------------------------------------------------------------------|

e|---------------------------------0-----0-0--------0-0----------------------|
B|---------------------------0---0-----------3-2--------3-2---0-0-0--2-3-----|
G|-------1-2-1--------1-2-1----2-----------------2----------2----------------|
D|---4-4-------4--4-4--------------------------------------------------------|
A|---------------------------------------------------------------------------|
E|---------------------------------------------------------------------------|

e|-2-0----0-0--------0-0----------------------------------------------0------------|
B|------------3-2--------3-2---0-0-0--2-3---3-3-3-2---0------0--2---0---2--1-2-1---|
G|----------------2----------2----------------------2------2------2----------------|
D|-------------------------------------------------------------------------------4-|
A|---------------------------------------------------------------------------------|
E|---------------------------------------------------------------------------------|

e|-----------------------------------0-0-2-2--|
B|--2-2-0-0------0---2-2---22-2---0-----------|
G|----------2------1------------2-------------|
D|------------4-------------------------------|
A|--------------------------------------------|
E|--------------------------------------------|


************************************

| /   slide up
| \   slide down
| h   hammer-on
| p   pull-off
| ~   vibrato
| +   harmonic
| x   Mute note
| b   Bend
| pb  Pre-bend
| br  Bend release
| pbr Pre-bend release
| brb Bend release bend

************************************
Добавлено: 06.04.2016
Другие материалы по этой песне:
  • Аккорды и текст

Страница создана 06.04.2016
http://primanota.ru/misc-television/denji-sentai-megaranger-theme-chords.htm
Привет, Гость.
Предлагаем пройти революционный курс по гитаре.
Подарок от PrimaNota.Ru, забирай!