PrimaNota.ru - самый крупный в мире бесплатный архив песенных текстов, аккордов, табулатур и нот


Misc Television - Community - If I Die Before You - таба, видео

Регистрация Запомнить меня
Войти через:  Facebook Google Twitter Vk Yandex Mail.ru

Misc Television - Community - If I Die Before You - таба, видео

Печатать
Просмотров: 40
Ludwig Goransson - If I Die Before You
From the TV show Community

Standard tuning, no capo.

Basic Melody Played throughout:

e|--------12---------12---------12---------12---------12---------12---------12---------12---|
B|--12h14------12h14------12h14------12h14------12h14------12h14------12h14------12h14------|
G|------------------------------------------------------------------------------------------|
D|------------------------------------------------------------------------------------------|
A|------------------------------------------------------------------------------------------|
E|------------------------------------------------------------------------------------------|

e|--------5----------5----------5----------5-----------7----------7----------7----------7---|
B|----5h7--------5h7--------5h7--------5h7---------7h9--------7h9--------7h9--------7h9-----|
G|------------------------------------------------------------------------------------------|
D|------------------------------------------------------------------------------------------|
A|------------------------------------------------------------------------------------------|
E|------------------------------------------------------------------------------------------|

During the parts when he's singing swap the eighth e|--------12| for another e|---------5--|
                                                   B|--12h14---|             B|-----5h7----|

Bit changes back during instrumental parts.

Chords:

A, Bm, F#m, E x4

A
If I fall, would you take my car back?
          Bm
If I fail with the test, would you know what is best?

            F#m
Be my friend, be my love

Follow me to get lost, all the time
E
If I die, will you cry on my eye, little boy?

A
We could live in a house with two kids
            Bm
You and me, diamond ring

We would do our own thing

F#m
Be my friend, be my love

Follow me to get lost, all the time
E
If I die, I will lay by your side

D          Bm
Come here, don't think
F#m         E
Don't stop, open up
A                    
Believin' in a place where you feel free
                  Bm
It's just another race for you and me

Let's fall in love        A, Bm, F#m, E  x2

A
If I fall, would you take my car back?
          Bm
If I fail with the test, would you know what is best?

             F#m
Be my friend, be my love
 
Follow me to get lost, all the time
E
If I die, will you cry on my eye, little boy?

A
We could live in a house with two kids
           Bm
You and me, diamond ring

We would do our own thing

            F#m
Be my friend, be my love

Follow me to get lost, all the time
E
If I die, I will lay by your side

A, Bm, F#m, E  x2

Then play this x3

e|--------12---------12---------12---------12---------12---------12---------12---------12---|
B|--12h14------12h14------12h14------12h14------12h14------12h14------12h14------12h14------|
G|------------------------------------------------------------------------------------------|
D|------------------------------------------------------------------------------------------|
A|------------------------------------------------------------------------------------------|
E|------------------------------------------------------------------------------------------|

e|--------5----------5----------5----------5-----------7----------7----------7----------7---|
B|----5h7--------5h7--------5h7--------5h7---------7h9--------7h9--------7h9--------7h9-----|
G|------------------------------------------------------------------------------------------|
D|------------------------------------------------------------------------------------------|
A|------------------------------------------------------------------------------------------|
E|------------------------------------------------------------------------------------------|

Hope this is accurate, any corrections let me know. :)
Добавлено: 06.04.2016
Другие материалы по этой песне:
  • Аккорды и текст

Страница создана 06.04.2016
http://primanota.ru/misc-television/community-if-i-die-before-you-chords.htm
Привет, Гость.
Предлагаем пройти революционный курс по гитаре.
Подарок от PrimaNota.Ru, забирай!