PrimaNota.ru - самый крупный в мире бесплатный архив песенных текстов, аккордов, табулатур и нот


Misc Television - Budweiser Song - таба, видео

Регистрация Запомнить меня
Войти через:  Facebook Google Twitter Vk Yandex Mail.ru

Misc Television - Budweiser Song - таба, видео

Печатать
Просмотров: 95
Budweiser Song
Drop "D" Tuning
Brandon Mitcell - This is all my own work. I was bored one day, and I saw
this commercial on tv,
G I decided to tab it out. Isnt that hard of a song, G enjoy.
Intro/Main Verse:
e|------------------------------------------------------------------|
B|------------------------------------------------------------------|
G|----------------------14------------------------------------------|
D|----------------------12---------0h3/5---5---5---5-5h6--3---3h5--0|
A|-12---12----12--12h13-13---------0h3/5---5---5---5-5h6--3---3h5--0|
E|-0----0-----0---0------0---------0h3/5---5---5---5-5h6--3---3h5--0|
Repeat that riff, then after it, he goes:
e|-------------------------------------|
B|-------------------------------------|
G|-------------------------14----------|
D|--0---0-3/12--0----------12---0h3/5--|
A|--0---0-3/12--0---12h13--13---0h3/5--|
E|--0---0-3/12--0---0------0----0h3/5--|
Chorus(the fun part =):
e|-------------------------------------|
B|------------------6------------------|
G|---5-6-7----5-6-7--7-6-5-------------|
A|-------------------------7-6-5-------|
D|-------------------------------5--5--|
E|-------------------------------0--0--|
Have fun :)

     
Добавлено: 27.11.2013
Другие материалы по этой песне:
  • Аккорды и текст

Страница создана 06.09.2013
http://primanota.ru/misc-television/budweiser-song-chords.htm
Привет, Гость.
Предлагаем пройти революционный курс по гитаре.
Подарок от PrimaNota.Ru, забирай!